>
 >
Goodbye To Romance 2

Goodbye To Romance 2 Guitar Tabs

Ozzy Osbourne - Goodbye To Romance 2 chords, tabs, tablatures, lyrics

Guitar lessons | Add/correct | Request | Top 50 tabs Artists:  A B C D E F G H I J K L M N O P Q R S T U V W X Y Z 0-9

Goodbye To Romance 2 Guitar Tabs – Ozzy Osbourne

CD, Sheet music, Poster

Do you like Goodbye To Romance 2? Share with your friends now
Bass TabsChordsChords v2TabsTabs v2Tabs v3Tabs v4Tabs v5Ukulele
Group: ozzy osbourne
2Song Name: goodbye to romance
4Release:
4Submitted By: jim thatcher
6Song Text:                    GOODBYE TO ROMANCE
|---0-2h3-2-0-2p0---0----0-----------0---|
|-3---------------3----3---2---2---3-----|
|----------------------------4---0-------|
|----------------------------------------|
|----------------------------------------|
|----------------------------------------|

"Yesterday has been and gone..."
|----------5-------)5---------)9-------)12-------
|-7-----7----------(7---------(10------(10-------
|-6----------------)6---------)11------)9--------
|-7-----7----------(7---------(11------(11-------
|-5----------------)5---------)9-------)9--------
|------------------------------------------------

|----0-----0-------------------------------------
|----3--3-------3--0h2h3/5-7---5---3---2h3h5/----
|----0-------------0h2h4/6-7---6---4-------------
|----0-------------------------------------------
|------------------------------------------------
|-3----------------------------------------------

"I say goodbye to romance...yeah..."
|---------------------5h7---------7h9----9h10---9------------------
|-7-----3h5p3---------7-----7-----7------7---------8---------------
|-7--2-------------2-----------------------------------------------
|-0----------------------------9-----------------------------------
|---------------4--------------9-----------------------------------
|---------------------------7--------------------------------------
"Goodbye to freinds..."           "I tell ya"            "Goodbye to all the past..."
|-------5--7-----5--7-|10-1010--10-------------------------------------5--7--
|-0-----3-------------|-8--8-8---8--------------------------3h5p3------7-----
|----7----------------|-9--9-9---9------------------------2----------2-------
|----0----------------|-7--7-7---7---------------4h7-p4----------------------
|---------------------|---------------------4h5--5h7-p5-----------4----------
|-3-------------------|---------------------5h7------------------------------
                                  "I guess that well meet..."
|-------9-10-9-----9-------|-------5--7--------5--7--10-10---9-----
|--------------------7-----|-------3------------------8---8--8-----
|----------------------7---|-7--0---------------------9----9-9-----
|----9----------4--------9-|--------------------------7------7-----
|----9-------0-------------|---------------------------------------
|-7------------------------|-3-------------------------------------

Interlude: 1st time
|----0-2-5-3p2-2p0---0---0--------------------|
|-/3---------------3---3---2h3p2----2---3/5/7-|
|--------------------------------4----0-------|
|---------------------------------------------|
|---------------------------------------------|
|---------------------------------------------|
Interlude: 2nd time
|--------------------------2-------------0----------------0-------0-
|-7-----3h5p3---3p2------3---3---------3---3------------3-------3---
|-7--2-----------------4-------4-----4-------4--------0-------------
|-0-------------------------------------------------0---------------
|-------------4-----2-------------0---------------2-----------------
|-----------------------------------------------3-------------------

|------------------------------------------------------------------
|-3---3----3-------------------------------------------------------
|-0---0----0-------------------------------------------------------
|-2---2----2----------4-5p4----continue as shown above until bridge.
|-0---0----0------4-5-5-7p5----------------------------------------
|-----------------5-7----------------------------------------------

Bridge:
"and i feel the time is right, although i know that you..."
|-5/7\5-7--------7---10------------9---10--9----------7--------7-9--10-
|-5/7\5-8--------8----8-----------10---10--10-----8-----------8--8-----
|-------7--------7----7--------------------9-----------------9---9-----
|-------9--------------------------------------------------7-----------
|-------7--------------------------------------------------------------
|----------------------------------------------------------------------

|-10h12p10---------------------------------------------10-12-------------
|-10-------12-------------------------10h12p10---------10----10-12-------
|-11------------9-11---11----11h12p11-11-------12--11--11-----------9----
|-----------------12---------12----------------12---------------------11-
|---------------------------------------------------------------------12-
|------------------------------------------------------------------------
        "But i have to take this chance..."
----------|------10---9-10--9------7-7-----9-10--|
-10--8--7-|-8--8------8-----10---8-------8-------|
----------|-9------------------9-------9---------|
----------|--------------------------------------|
----------|--------------------------------------|
----------|--------------------------------------|

Randy's outing here is moody and melodic and displays the many facets of his
ballad style.  In a very slow and stately tempo, Randy constructs another
logical and compositional guitar solo utilizing elements of classical melody,
blues scales, bends, and pyrotechnical passagework alternating between smooth
simple-time and intricate double-time feels.  Notice, again, the interesting
motion of the background chord progression.

Guitar Solo:
|-------------------15p14-12~~--|-----14h15p14----14--------------14------14-15-|
|-------------------------------|---15---------17----17p15p14-17^---17~~~-------|
|-----7h9-7/11h14---------------|-16--------------------------------------------|
|-7h9---------------------------|-----------------------------------------------|
|-------------------------------|-----------------------------------------------|
|-------------------------------|-----------------------------------------------|

|-17p15p14----14-----------------------14-15141514-17151715-19171917-
|----------17---17151415--------141517-------------------------------
|------------------------161416--------------------------------------
|--------------------------------------------------------------------
|--------------------------------------------------------------------
|--------------------------------------------------------------------

-21192119-|-21^-^(21)p19-21p19--19-21^-^(21)-|-----7-------------------7-9^|
----------|-------------------22-------------|----7--10-7-8-7----7---------|
----------|----------------------------------|-9^-------------9^---9~~~----|
----------|----------------------------------|-----------------------------|
----------|----------------------------------|-----------------------------|
----------|----------------------------------|-----------------------------|

|-^(9)p7----7-----------------------------|-----------------------
|--------10---10-8p7---7-----------7~~~~~-|------------------------
|--------------------9---9-7-6-7-9--------|------------------------
|-----------------------------------------|------------------------
|-----------------------------------------|------------------------
|-----------------------------------------|------------------------

|-9-10-7-9----7----------------------|--------------------------14-15-17p15p14---|
|----------10---8-10-7-8---7---------|------------------15h17-19--------------17-|
|------------------------9---7-9-6-7-|-9~~-11~~-14h16-18-------------------------|
|------------------------------------|-------------------------------------------|
|------------------------------------|-------------------------------------------|
|------------------------------------|-------------------------------------------|

|------------------------------------------------------------------
|-/19~~~~~---(19)\-------------------------------------------------
|-/19~~~~~---(19)\-------------------------------------------------
|------------------------------------------------------------------
|------------------end of solo-------------------------------------
|------------------------------------------------------------------

Outro:
|------------------------------------------------------------------
|------------------------------------------------------------10p7--
|--------------------------------------------------------9p7-------
|----------------------------------------------------9p7-----------
|------5---4---2---------------------2-----------9p7---------------
|-17\--------------3--5--3----3--5-------5---7p5-------------------

------|----------------------------------------------10-12---12/14-|
------|------------------------------------------------------------|
-9h11-|-7---------9----------11-----9------11\9p7-----7--9----9/11-|
------|------------------------------------------------------------|
------|------------------------------------------------------------|
------|------------------------------------------------------------|

|12----------------------------------------------------------------
|------------------------------------------------------------------
|-9-----9p7p6-7p6\4-6-5--------------------------------------------
|-----------------------7-5p4--------------------------------------
|-----------------------------7-----5-----4----2-------------------
|----------------------------------------------------5-------------

submit: Send





Comments


Popular Ozzy Osbourne tabs & chords
No Bone Movies Bass Tabs
Crazy Train 1 Drum Tabs
11 Silver 1 Tabs
Believer 3 Tabs
Gets Me Through Yeh Tabs
Iron Man Ozzman Tabs
Killer Of Giants Tabs
Let Me Hear You Scream 1 Tabs
Lightning Strikes Tabs
See You On The Other Side Tabs


Song lyrics



↑ Back to top | Tablatures and chords are parodies/interpretations of the original songs. You may use it for private study, scholarship, research or language learning purposes only
© 2014 AZChords.com Contact us | Privacy policy | DMCA | Add/correct tabs | Request tabs | Top 50 tabs