» » »

Ozzy Osbourne, Gets Me Thru Bass tabs (ver.1)

Artists:  A B C D E F G H I J K L M N O P Q R S T U V W X Y Z # 

Gets Me Thru Bass tabs (ver.1)

Ozzy Osbourne Tabs
 Rating:
4/5 (4 votes)
Gets Me Thru lessons Tabs too difficult? Try these video lessons and learn fast
                After piano intro

0:29

G|-------------------------------------------------------------|
D|------------------------------------------------------0h1----|
A|---------------------------------------------------0h1-------|
E|--5\----0-0--0-2b--0-0-2b-0-0-0-0---0-2b--0-0--0-------------| x2

0:42

G|-------------------------------------------------------------|
D|-------------------------------------------------------------|
A|-------------------------------------------------------------| listen to song to how many
E|--0-0--0-2b--0-0-2b-0-0-0-0---0-2b--0-0--2b-00---------------| times it repeats

Riff 1
1:08
G|-------------------------------------------------------------|
D|------------------------------------------------------0h1----|
A|---------------------------------------------------0h1-------|
E|--5\----0-0--0-2b--0-0-2b-0-0-0-0---0-2b--0-0--0-------------| x2

1:21

G|-------------------------------------------------------------|
D|-------------------------------------------------------------|
A|-------------------------------------------------------------|
E|--0-0--0-2b--0-0-2b-0-0-0-0---0-2b--0-0--2b-00---------------|

back to riff 1

1:47

G|-------------------------------------------------------------|
D|------------------------------------------------------0h1----|
A|---------------------------------------------------0h1-------|
E|------0-0--0-2b--0-0-2b-0-0-0-0---0-2b--0-0--0---------------|

Then the mellow bit
2:00

G|-------------------------------------------------------------|
D|-------------------------------------------------------------|
A|-------------------------------------------------------------|
E|---8b--9-7b--------------5b-5b-5b---3b*----------------------| repeat 4


During solo play:

G|-------------------------------------------------------------|
D|-------------------------------------------------------------|
A|-------------------------------------------------------------|
E|---3-3-3-3-3-3-0-0-0-0-0-0-0-0-0-0---7-6-5-------------------| repeat


after that it goes quiet and then back into riff 1 again

G|-------------------------------------------------------------|
D|------------------------------------------------------0h1----|
A|---------------------------------------------------0h1-------|
E|------0-0--0-2b--0-0-2b-0-0-0-0---0-2b--0-0--0---------------|




riff 2
G|-------------------------------------------------------------|
D|-------------------------------------------------------------|
A|-------------------------------------------------------------|
E|--0-0--0-2b--0-0-2b-0-0-0-0---0-2b--0-0--2b-00---------------|


G|-------------------------------------------------------------|
D|-------------------------------------------------------------|
A|-------------------------------------------------------------|
E|-6*/9*-------------------------------------------------------|


G|-------------------------------------------------------------|
D|------------------------------------------------------0h1----|
A|---------------------------------------------------0h1-------|
E|------0-0--0-2b--0-0-2b-0-0-0-0---0-2b--0-0--0---------------|


G|-------------------------------------------------------------|
D|-------------------------------------------------------------|
A|-------------------------------------------------------------|
E|--0-0--0-2b--0-0-2b-0-0-0-0---0-2b--0-0--2b-00---------------|




Guitar solo number 2 just play riff..and then end

G|-------------------------------------------------------------|
D|------------------------------------------------------0h1----|
A|---------------------------------------------------0h1-------|
E|------0-0--0-2b--0-0-2b-0-0-0-0---0-2b--0-0--0---------------|
            
Submit corrections

comments powered by Disqus
↑ Back to top | Ozzy Osbourne Bass for Gets Me Thru. Lyrics for acoustic guitar and electric guitar. Tablatures and chords are parodies/interpretations of the original songs. You may use it for private study, scholarship, research or language learning purposes only