» » »

Flying High Again Bass tabs (ver.1)

Artists:  A B C D E F G H I J K L M N O P Q R S T U V W X Y Z # 

Flying High Again Bass tabs (ver.1)

Ozzy Osbourne
Rating:
0/5 (0 votes)

Hard to play? Try these video lessons and learn fast.
                FLYING HIGH AGAIN (Bassline)
As recorded by Ozzy Osbourne
(From the 1981 Album DIARY OF A MADMAN)



 Words and Music by Ozzy Osbourne, Randy Rhoads, Bob Daisley and Lee Kerslake

 

Gtr I (Eb Ab Db Gb) - 'Tune Down 1/2 Step'


 Intro
  Moderate Rock Q=124
 4/4
  Gtr I
  E E Q  E e Q    E E E E E E Q    E E Q  E E Q    E E q  E E Q
|---------------|----------------|---------------|----------------|
|---------------|----------------|---------------|----------------|
|---0------0----|-----------0----|---0------0----|----------0-----|
|---------------|---0-2----------|---------------|---0-2----------|


  E E Q  E e Q    E E E E E E Q    E E Q  E E Q    E E q  E E Q
|---------------|----------------|---------------|---------------||
|---------------|----------------|---------------|---------------||
|---0------0----|-----------0----|---0------0----|----------0----||
|---------------|---0-2----------|---------------|---0-2---------||


 Verse
  E E Q  E e Q    E E E E E E Q    E E Q  E E Q    E E q  E E Q
|---------------|----------------|---------------|---------------|
|---------------|----------------|---------------|---------------|
|---0------0----|-----------0----|---0------0----|----------0----|
|---------------|---0-2----------|---------------|---0-2---------|


  E E Q  E E Q    E E E E E E Q    E E Q  E E Q    E E q  s E. E E
|---------------|----------------|---------------|-----------------||
|---------------|----------------|---------------|-----------------||
|---0------0----|-----------0----|---0------0----|-----------------||
|---------------|---0-2----------|---------------|---0-2--0-0--3-4-||


 Pre-Chorus
  E E E E E E E E   E E E E E E E E   E E E E E E E E   E E E E E E E E
|-----------------|-----------------|-----------------|-----------------|
|-----------------|---------4-5-6-7-|-----------------|---------4-5-6-7-|
|-0-0-0-0-0-0-0-0-|-0-0-0-0---------|-0-0-0-0-0-0-0-0-|-0-0-0-0---------|
|-----------------|-----------------|-----------------|-----------------|


  E E E E E E E E   E E E E E E E E   E E E E E E E E   E E E E E E E E
|-----------------|-----------------|-----------------|-----------------||
|-----------------|---------4-5-6-7-|-----------------|---------4-5-6-7-||
|-0-0-0-0-0-0-0-0-|-0-0-0-0---------|-0-0-0-0-0-0-0-0-|-0-0-0-0---------||
|-----------------|-----------------|-----------------|-----------------||


 Bridge
  a E E E E E E E E   E E E E E E E E
|-------------------|-----------------|
|-2h4-4-4-4-4-4-4-4-|-4-4-4-4-4-4-4-4-|
|-------------------|-----------------|
|-------------------|-----------------|


  E E E E E E E E     E  E  E  E E E E E
|-----------------|-----------------------|
|-0-0-0-0-0-0-0-0-|-/12-12-11-11-9-9-7-7--|
|-----------------|-----------------------|
|-----------------|-----------------------|


  a E E E E E E E E   E E E E E E E E
|-------------------|-----------------|
|-2h4-4-4-4-4-4-4-4-|-4-4-4-4-4-4-4-4-|
|-------------------|-----------------|
|-------------------|-----------------|


  E E E E E E E E     E  E  E  E E E E E
|-----------------|-----------------------||
|-0-0-0-0-0-0-0-0-|-/12-12-11-11-9-9-7-7--||
|-----------------|-----------------------||
|-----------------|-----------------------||


 Re-Intro
  E E Q  E e Q    E E E E E E Q    E E Q  E E Q    E E q  E E Q
|---------------|----------------|---------------|---------------|
|---------------|----------------|---------------|---------------|
|---0------0----|-----------0----|---0------0----|----------0----|
|---------------|---0-2----------|---------------|---0-2---------|


  E E Q  E e Q    E E E E E E Q    E E Q  E E Q    E E q  E E Q
|---------------|----------------|---------------|---------------||
|---------------|----------------|---------------|---------------||
|---0------0----|-----------0----|---0------0----|----------0----||
|---------------|---0-2----------|---------------|---0-2---------||


 Verse
  E E Q  E e Q    E E E E E E Q    E E Q  E E Q    E E q  E E Q
|---------------|----------------|---------------|---------------|
|---------------|----------------|---------------|---------------|
|---0------0----|-----------0----|---0------0----|----------0----|
|---------------|---0-2----------|---------------|---0-2---------|


  E E Q  E E Q    E E E E E E Q    E E Q  E E Q    E E q  s E. E E
|---------------|----------------|---------------|-----------------|
|---------------|----------------|---------------|-----------------|
|---0------0----|-----------0----|---0------0----|-----------------|
|---------------|---0-2----------|---------------|---0-2--0-0--3-4-|


 Pre-Chorus
  E E E E E E E E   E E E E E E E E   E E E E E E E E   E E E E E E E E
|-----------------|-----------------|-----------------|-----------------|
|-----------------|---------4-5-6-7-|-----------------|---------4-5-6-7-|
|-0-0-0-0-0-0-0-0-|-0-0-0-0---------|-0-0-0-0-0-0-0-0-|-0-0-0-0---------|
|-----------------|-----------------|-----------------|-----------------|


  E E E E E E E E   E E E E E E E E   E E E E E E E E   E E E E E E E E
|-----------------|-----------------|-----------------|-----------------||
|-----------------|---------4-5-6-7-|-----------------|---------4-5-6-7-||
|-0-0-0-0-0-0-0-0-|-0-0-0-0---------|-0-0-0-0-0-0-0-0-|-0-0-0-0---------||
|-----------------|-----------------|-----------------|-----------------||


 Bridge
  a E E E E E E E E   E E E E E E E E   E E E E E E E E
|-------------------|-----------------|-----------------|
|-2h4-4-4-4-4-4-4-4-|-4-4-4-4-4-4-4-4-|-0-0-0-0-0-0-0-0-|
|-------------------|-----------------|-----------------|
|-------------------|-----------------|-----------------|


   S  S  S  S  S  S  S  S S S S S S S E
|----------------------------------------||
|-11s12-12-12-11-11-11-11-9-9-9-9-7-7-7--||
|----------------------------------------||
|----------------------------------------||


  a E E E E E E E E   E E E E E E E E
|-------------------|-----------------|
|-2h4-4-4-4-4-4-4-4-|-4-4-4-4-4-4-4-4-|
|-------------------|-----------------|
|-------------------|-----------------|


  E E E E E E E E     E  E  E  E E E E E
|-----------------|-----------------------||
|-0-0-0-0-0-0-0-0-|-/12-12-11-11-9-9-7-7--||
|-----------------|-----------------------||
|-----------------|-----------------------||


 1st Chorus
  E E E E E E E S S   E E a E E E E E E    E E E E E E E S S
|-------------------|--------------------|-------------------|
|---------------5h7-|-7-7-5h7-7-7-7-7-7\-|---------------5h7-|
|-0-0-0-0-0-0-0-----|--------------------|-0-0-0-0-0-0-0-----|
|-------------------|--------------------|-------------------|


  S S S S S S S S S S S S S s E    E E E E E E E E   E E E E E E E E
|--------------------------------|-----------------|-----------------|
|-7-7-7-7-7-7-7-7-7-7-7-7-7-7-7\-|-----------------|---7---7---------|
|--------------------------------|-0-0-0-0-0-0-0-0-|-0---0---0-0-0-0-|
|--------------------------------|-----------------|-----------------|


                                 Guitar Solo
  E E E E E Q  E   +W             E E E E E E E E     E E E E E E E E
|----------------|------------||--------------4-6--||-----------2-----|
|----------------|------------||o-4-4-6-6-7-7-----o||-0-0-0-0-0---0-0-|
|-0-0-0-0-0-3--5-|-(5)--------||o-----------------o||-----------------|
|----------------|------------||-------------------||-----------------|


   S  S  E  S  S  S  S S S S S E E     E E E E E E E E     E E E E E E E E
|----------------------------------||--------------4-6--||-----------2------|
|-11s12-12-11-11-11-11-9-9-9-9-7-7-||o-4-4-6-6-7-7-----o||-0-0-0-0-0---0-0--|
|----------------------------------||o-----------------o||------------------|
|----------------------------------||-------------------||------------------|


   S  S  E  S  S  S  S S S S S E E    E E E E E E E E   E E E E E E E E
|----------------------------------|------------------|------------------|
|-11s12-12-11-11-11-11-9-9-9-9-7-7-|-/7-7-7-7-7-7-7-7-|-3-3-3-3-3-3-3-3--|
|----------------------------------|------------------|------------------|
|----------------------------------|------------------|------------------|


  E E E E E E E E   E E E E E E E E   a E E E E E E E E   E E E E E E E E
|-----------------|-----------------|-------------------|------------------|
|-0-0-0-0-0-0-0-0-|-----------------|-------------------|------------------|
|-----------------|-1-1-1-1-1-1-1-1-|-5h7-7-7-7-7-7-7-7-|-3-3-3-3-3-3-3-3--|
|-----------------|-----------------|-------------------|------------------|


                                      2nd Chorus
  E E E E E E E E   E E E E E E E E    E E E E E E E  E   E E E E E E E E
|-----------------|-----------------||------------------|------------------|
|-----------------|-----------------||---------------/7-|-7-7-7-7-7-7-7-7\-|
|-0-0-0-0-0-0-0-0-|-----------------||-0-0-0-0-0-0-0----|------------------|
|-----------------|-1-1-1-1-1-1-1-1-||------------------|------------------|


  E E E E E  E E E   E E  E E E E e E   E E E E E E E  E   E E E E  E E E E
|------------------|------------------|------------------|-------------------|
|-----------/7-7-7-|-7-7--------------|---------------/7-|-7-7-7-4-/7-7-7-7\-|
|-0-0-0-0-0--------|------------------|-0-0-0-0-0-0-0----|-------------------|
|------------------|-----/5-5-5-5-5-5-|------------------|-------------------|


                                2nd Re-Intro
  E E E E E Q  E   +W            E E Q  H      E E E E E E Q
|----------------|------------||-------------|----------------|
|----------------|------------||-------------|----------------|
|-0-0-0-0-0-3--5-|-(5)--------||-0-0---------|-----------0----|
|----------------|------------||-----2-------|---0-2----------|


  E E Q  E E Q    E E E E E E Q    E E Q  E e Q    E E E E E E Q
|---------------|----------------|---------------|----------------|
|---------------|----------------|---------------|----------------|
|---0------0----|-----------0----|---0------0----|-----------0----|
|---------------|---0-2----------|---------------|---0-2----------|


                                  Verse
  E E Q  E E Q    E E q  E E Q     E E Q  E e Q    E E E E E E Q
|---------------|---------------||---------------|----------------|
|---------------|---------------||---------------|----------------|
|---0------0----|----------0----||---0------0----|-----------0----|
|---------------|---0-2---------||---------------|---0-2----------|


  E E Q  E E Q    E E q  E E Q    E E Q  E E Q    E E E E E E Q
|---------------|---------------|---------------|----------------|
|---------------|---------------|---------------|----------------|
|---0------0----|----------0----|---0------0----|-----------0----|
|---------------|---0-2---------|---------------|---0-2----------|


  E E Q  E E Q    E E q  s E. E E   E E E E E E E E   E E E E E E E E
|---------------|-----------------|-----------------|-----------------|
|---------------|-----------------|-----------------|---------4-5-6-7-|
|---0------0----|-----------------|-0-0-0-0-0-0-0-0-|-0-0-0-0---------|
|---------------|---0-2--0-0--3-4-|-----------------|-----------------|


  E E E E E E E E   E E E E E E E E   E E E E E E E E   E E E E E E E E
|-----------------|-----------------|-----------------|-----------------|
|-----------------|---------4-5-6-7-|-----------------|---------4-5-6-7-|
|-0-0-0-0-0-0-0-0-|-0-0-0-0---------|-0-0-0-0-0-0-0-0-|-0-0-0-0---------|
|-----------------|-----------------|-----------------|-----------------|


                                      3rd Chorus
  E E E E E E E E   E E E E E E E E    E E E E E E E S S
|-----------------|-----------------||--------------------|
|-----------------|---------4-5-6-7-||---------------5h7--|
|-0-0-0-0-0-0-0-0-|-0-0-0-0---------||-0-0-0-0-0-0-0------|
|-----------------|-----------------||--------------------|


  E E a E E E E E E    E E E E E E E S S   S S S S S S S S S S S S S s E
|--------------------|-------------------|--------------------------------|
|-7-7-5h7-7-7-7-7-7\-|---------------5h7-|-7-7-7-7-7-7-7-7-7-7-7-7-7-7-7\-|
|--------------------|-0-0-0-0-0-0-0-----|--------------------------------|
|--------------------|-------------------|--------------------------------|


  E E E E E E E S S   E E a E E E E E E    E E E E E E E S S
|-------------------|--------------------|-------------------|
|---------------5h7-|-7-7-5h7-7-7-7-7-7\-|---------------5h7-|
|-0-0-0-0-0-0-0-----|--------------------|-0-0-0-0-0-0-0-----|
|-------------------|--------------------|-------------------|


                                   Outro
                                                                 TP
  S S S S S S S S S S S S S s E     E E E E E E E  a  E    E  E  H.
|--------------------------------||---------------------|--------------||
|-7-7-7-7-7-7-7-7-7-7-7-7-7-7-7\-||---------------------|--------------||
|--------------------------------||-0-0-0-0-0-0-0-10s12-|-12-12-12-----||
|--------------------------------||---------------------|--------------||


  E E E E E E E E   E E E E E E E E   E E E E E E E E   E E E E E E E E
|-----------------|-----------------|-----------------|-----------------|
|-----------------|---------4-5-6-7-|-----------------|---------4-5-6-7-|
|-0-0-0-0-0-0-0-0-|-0-0-0-0---------|-0-0-0-0-0-0-0-0-|-0-0-0-0---------|
|-----------------|-----------------|-----------------|-----------------|


                                 TP
    E E E E E E E  a  E    E  E  H.
||----------------------|----------------|
||o---------------------|----------------|
||o-0-0-0-0-0-0-0-10s12-|-12-12-12-------|
||----------------------|----------------|


                               TP
  E E E E E E E  a  E    E  E  H.
|---------------------|---------------||
|---------------------|--------------o||
|-0-0-0-0-0-0-0-10s12-|-12-12-12-----o||
|---------------------|---------------||






Duration Legend
---------------
W - whole; H - half; Q - quarter; E - 8th; S - 16th; T - 32nd; X - 64th; a - acciaccatura
+ - note tied to previous; . - note dotted; .. - note double dotted
Uncapitalized letters represent notes that are staccato (1/2 duration)
Irregular groupings are notated above the duration line
Duration letters will always appear directly above the note/fret number it represents the
duration for.  Duration letters with no fret number below them represent rests.  Multi-
bar rests are notated in the form Wxn, where n is the number of bars to rest for.  Low
melody durations appear below the staff

Tablature Legend
----------------
 h   - hammer-on
 p   - pull-off
 b   - bend
 pb  - pre-bend
 r   - bend release (if no number after the r, then release immediately)
 /\  - slide into or out of (from/to "nowhere")
 s   - legato slide
 S   - shift slide
<n> - natural harmonic
[n]  - artificial harmonic
n(n) - tapped harmonic
 ~   - vibrato
 tr  - trill
 T   - tap
 TP  - trem. picking
 PM  - palm muting
\n/  - tremolo bar dip; n = amount to dip
 \n  - tremolo bar down
 n/  - tremolo bar up
/n\  - tremolo bar inverted dip
 =   - hold bend; also acts as connecting device for hammers/pulls
 <> - volume swell (louder/softer)
 x   - on rhythm slash represents muted slash
 o   - on rhythm slash represents single note slash

Misc Legend
-----------
 |  - bar
||  - double bar
||o - repeat start
o|| - repeat end
*|  - double bar (ending)
 :  - bar (freetime)
 $  - Segno
 &  - Coda
Tempo markers - <E/E./Q/Q./H/H.> = BPM(8/16=s8/s16), where s8 = swing 8ths, s16 = swing 16ths
            
Hard to play? Try these video lessons and learn fast. | Correct




comments powered by Disqus
↑ Back to top | Tablatures and chords are parodies/interpretations of the original songs. You may use it for private study, scholarship, research or language learning purposes only