» » »

Ozzy Osbourne, Facing Hell Tabs (ver.2)

Artists:  A B C D E F G H I J K L M N O P Q R S T U V W X Y Z # 

Facing Hell Tabs (ver.2)

Ozzy Osbourne Tabs
 Rating:
4/5 (4 votes)
Facing Hell lessons Tabs too difficult? Try these video lessons and learn fast
                If you listen to the cd while playing this it sounds 99% correct except for the verse chords. I can't tell if they are an octave lower or if those are it. The solo is perfect because if you have slow gold or slow blast and slow it down those are the exact notes. Oh and you leave the wah open while playing the solo. Any corrections on the verse part post them up for me so i can see if those are better. Rock on!
Ozzy Osbourne
   Facing Hell
Intro

E|---0-0-0-0-0-0-0-0-0-0-0-0-0-(with volume swell)---------------------

Intro/Chorus
                        First time                      Second Time
E|---------------------|--------------------------|-------------------
B|---------------------|--------------------------|-----------15/\/\/\
G|---------------------|--------------------------|-------------------
D|---------------------|--------------------------|-------------------
A|-----6-5-3-2---------|5-------/5-5^-5^-5^-5^----|-5-----7-----------
E|-0-0-4-3-1-0---0-0---|3-0-0---------------------|-3-0-0-5-0---------
   P.M…          P.M..     P.M.                       p.m   p.m      

Verse part 1 
                                                             
E|-------------------------------------------------------|----| Play 
B|-------------------------------------------------------|----| this 
G|--666------777----444----------------------------------|-6--|chord
D|--666------777----444----------------------------------|-6--|on the
A|--444------555----222----------------------------------|-4--|verse  
E|-------------------------------0-0-0-3/\/\/\-2-1/\/\/\-|----|after
 The solo on the second time they play this part.                                    
Verse Part 2  

E|---------------------------------------------------------------|
B|---------------------------------------------------------------|
G|-6------------7----------4-----------6-------------------------|
D|-6------------7----------4-----------6-------------------------|
A|-4------------5----------2-----------4-------------------------|
E|---000000-------0000000----000000------000000------------------|
      P.M…..       P.M…..    P.M…..       P.M…..

Bridge

E|--------------------------------|---|play this chord when you play
B|--------------------------------|---|this part with the open 0’s not
G|--------------------------------|---|palm muted.
D|---------5---5-----------4-2----|-4-|
A|---------5---5-----------4-2----|-4-|
E|---0-0-0-3-0-5-----0-0-0-2-0----|-2-|  
      P.M…            P.M…

Solo with wah 

E|--------------------------------------------------------------------
B|-15^/\/\/\/\/\-15p12---------------------15p12--------15p12-------12-
G|-----------------------14^/\/\/\/\/\--12------14---12------14--12---
D|--------------------------------------------------------------------
A|--------------------------------------------------------------------
E|--------------------------------------------------------------------

E|----------------------------------12-12-15p12------------------------
B|-15p12------12-15p12-----12-15p12------------15p12-----12-15p12------
G|-------15-12--------15-12-------------------------15p12--------15p12-
D|---------------------------------------------------------------------
A|---------------------------------------------------------------------
E|---------------------------------------------------------------------

E|------------------------------------------------------------------
B|------12----------------------15^/\/\/\-15p12-------------15p12—12-
G|-14p12—15p12-14p12-12-14^/\/\/\---------------14-14^/\/\/\-----14--
D|------------------------------------------------------------------
A|------------------------------------------------------------------
E|------------------------------------------------------------------

E|---------15^(16)-15^(17)------------------------
B|-15^/\/\/\--------------------------------------
G|------------------------------------------------
D|------------------------------------------------
A|------------------------------------------------
E|------------------------------------------------

E|-------------------------------------------|        |-17^(20)|
B|-------------------------------------------|        |--------|
G|-13^11-11br11-11br11-11br11-11br11-11br11--|x3 then |--------|
D|-------------------------------------------|        |--------|
A|-------------------------------------------|        |--------|
E|-------------------------------------------|        |--------|


E|--------------------|       |-17^(20)-|
B|--------------------|       |---------|
G|-----16p14-16^/\/\--|x3 then|---------|
D|-17^----------------|       |---------|
A|--------------------|       |---------|
E|--------------------|       |---------|

E|-------------------------------------------------------------
B|-------------------------------------------------------------
G|-10-10-10-12/\/\-10-12/\/\-9-9-11-9/\/\/\-10-10-12/\-10-12/\-
D|-------------------------------------------------------------
A|-------------------------------------------------------------
E|-------------------------------------------------------------


E|-151515151515151515----18^/\/\/\/\-| These are 15’s
B|-----------------------------------|
G|-----------------------------------|
D|-----------------------------------|
A|-----------------------------------|
E|-----------------------------------|

Fill 1
E|-15^-15^-15^-15^-13^----------------15^-15^-15^-15^-13^--------
B|---------------------15^/\/\--15^/\---------------------15^/\/\
G|---------------------------------------------------------------
D|---------------------------------------------------------------
A|---------------------------------------------------------------
E|---------------------------------------------------------------

E|-12h15p12-------------------------------
B|----------15-12h15p12-------------------
G|----------------------15-12h15p12-14p12-
D|----------------------------------------
A|----------------------------------------
E|----------------------------------------

Fill 2
E|-------------------------|           |-----------------------------
B|-------------------------|           |-----------------------------
G|----6--4-----------------|           |-10-10-10-12/\/\-10-12/\/\/\-
D|--------—5-4/\/\---------|x2 then    |-----------------------------
A|------------------0-0-0-0|           |-----------------------------
E|------------------0-0-0-0|           |-----------------------------
                       p.m.

Intro
Intro/chorus x2
Intro
Verse part 1  x2
Verse part 2  x2
Intro chorus  x2 the ending is a little different but its all in there
Intro
Verse part 1  x2
Verse part 2  x2
Intro/chorus  x2
Bridge x2 with palm muted 0’s
Bridge x2 with just open 0’s
Solo
Intro
Verse part 1 x1
Verse part 1 x1 with extra chord and without the 0-0-0-3/\/\/\…part
Chorus x2
Chorus x2 with fill 1 x2
Bridge x2 with just open 0’s
Bridge x2 with fill 2
            
Submit corrections

comments powered by Disqus
↑ Back to top | Ozzy Osbourne Tabs for Facing Hell. Lyrics for acoustic guitar and electric guitar. Tablatures and chords are parodies/interpretations of the original songs. You may use it for private study, scholarship, research or language learning purposes only