>
 >
Devil's Daughter

Devil's Daughter Guitar Tabs

Ozzy Osbourne - Devil's Daughter chords, tabs, tablatures, lyrics

Guitar lessons | Add/correct | Request | Top 50 tabs Artists:  A B C D E F G H I J K L M N O P Q R S T U V W X Y Z 0-9

Devil's Daughter Guitar Tabs – Ozzy Osbourne

CD, Sheet music, Poster

Do you like Devil's Daughter? Share with your friends now
Tabs
Devils Daughter - Ozzy Osbourne
Off the album No Rest For The Wicked

Tune down 1/2 step: Eb Ab Db Gb Bb Eb
                

  RIFF 1
                                                                     ~~
 ||------------------|-----------------|-----------------|--------------||
 ||------------------|-----------------|-----------------|--------------||
 ||------------------|-----------------|-----------------|--------------||
 ||--7-----5-----7---|---5-------------|-7-----5-----7---|--------------||
 ||----0-0---0-0---0-|-0---0-0-3-6-5-3-|---0-0---0-0---0-|-0-5^b---5-3--||
 ||------------------|-----------------|-----------------|--------------||


  RIFF2                               *1st ending riff              *2nd ending riff
 ||-------------------|-------------------|-------------------|----------||--------|
 ||--7---7--5---5--2--|(2)----0---0--2----|--7---7--5---5--0--|(0)-------||--------|
 ||--7---7--5---5--2--|(2)----0---0--2----|--7---7--5---5--0--|(0)-------||--0-----|
 ||--7---7--5---5--2--|(2)----0---0--2----|--7---7--5---5--0--|(0)-------||--0-----|
 ||-------------------|-------------------|-------------------|-------3--||--x-----|
 ||-------------------|-------------------|-------------------|-------1--||--3-----|


  RIFF3
 ||--3---2--------|------------------|--3--2-------|------------------|--3--2------|
 ||--3---3---2----|--------8---------|--3--3-------|------------------|--3--3---2--|
 ||--2---2---2----|----5---7^8^7^5---|--2--2-------|------------------|--2--3---2--|
 ||--0---0---2----|--7---7-----------|--0--0---3---|(3)-3-3-3-3-3-3-3-|--0--0---2--|
 ||----------0----|------------------|---------3---|(3)-3-3-3-3-3-3-3-|---------0--|
 ||---------------|------------------|---------1---|(1)-1-1-1-1-1-1-1-|------------|


 ||-------------------|-----------------|-----------------|-----------------|-0----|
 ||--------8----------|-----------------|-----------------|-----------------|-0----|
 ||---5----7^8^7^5----|-----------------|-----------------|-----------------|-1----|
 ||-7---7---------7---|-5-5-5-5-5-5-5-5-|-0-0-0-0-0-0-0-0-|-3-3-3-3-3-3-3-3-|-2----|
 ||-------------------|-5-5-5-5-5-5-5-5-|-0-0-0-0-0-0-0-0-|-3-3-3-3-3-3-3-3-|-2----|
 ||-------------------|-3-3-3-3-3-3-3-3-|-2-2-2-2-2-2-2-2-|-1-1-1-1-1-1-1-1-|-0----|




  SOLO
                     ~~                ~~~~~~~                   ~~~
 ||-------------|---------------------|---------|-------------------|-------------|
 ||--------17^b-|----17---------------|---------|--12---------------|--------17^b-|
 ||-----15------|-------13-15^13-15^b-|(15)-----|--11^b-rb^11^9-11--|-----15------|
 ||--16---------|---------------------|---------|-------------------|--16---------|
 ||-------------|---------------------|---------|-------------------|-------------|
 ||-------------|---------------------|---------|-------------------|-------------|

      ~~               ~~~~~~~~~               ~~~~
 ||-------------------|-----------|------------------|--------------------------|
 ||--17---------------|-----------|------------------|-14--------14--------14---|
 ||-----13-15^13-15^b-|(15)-------|-11^b---11-11-----|-14--------14--------14---|
 ||-------------------|-----------|------------------|---16161616--16161616-----|
 ||-------------------|-----------|------------------|--------------------------|
 ||-------------------|-----------|------------------|--------------------------|


 ||------------------------------------------|--------------------------|
 ||-13121013-12101312-10131210-12^b^12^10-12-|-14--------14--------14---|
 ||------------------------------------------|-14--------14--------14---|
 ||------------------------------------------|---16161616--16161616-----|
 ||------------------------------------------|--------------------------|
 ||------------------------------------------|--------------------------|


 ||-12-11-10-9-8-12-11-10-|-------------------------|-14-----------14------------|
 ||-----------------------|-14--------14--------14--|---17^14-17^b---17^14-17^b--|
 ||-----------------------|-14--------14--------14--|----------------------------|
 ||-----------------------|---16161616--16161616----|----------------------------|
 ||-----------------------|-------------------------|----------------------------|
 ||-----------------------|-------------------------|----------------------------|



 ||-------------------------|-14^b--------|-----------------------------------|
 ||-14--------14--------14--|------14-14--|-8^0-7^0-5^0-7^0-8^0-7^0-5^0-7^0---|
 ||-14--------14--------14--|-------------|-----------------------------------|
 ||---16161616--16161616----|-------------|-----------------------------------|
 ||-------------------------|-------------|-----------------------------------|
 ||-------------------------|-------------|-----------------------------------|


||-----------------------------------|---------------------------------|-----------|
||-10^0-8^0-7^0-8^0-10^0-8^0-7^0-8^0-|-5^0-3^0-1^0-3^0-5^0-3^0-1^0-3^0-|2---5--7---|
||-----------------------------------|---------------------------------|4^b-7^b-9^b|
||-----------------------------------|---------------------------------|-----------|
||-----------------------------------|---------------------------------|-----------|
||-----------------------------------|---------------------------------|-----------|


 ||---------------------------------|-----------------------------------|
 ||-8^0-7^0-5^0-7^0-8^0-7^0-5^0-7^0-|-10^0-8^0-7^0-8^0-10^0-8^0-7^0-8^0-|
 ||---------------------------------|-----------------------------------|
 ||---------------------------------|-----------------------------------|
 ||---------------------------------|-----------------------------------|
 ||---------------------------------|-----------------------------------|



||---------------------------------------|---------------------------------------|
||12^0-10^0-8^0-10^0-12^0-10^0-8^0-10^0-|2---5---7-------17-20^17----17-20^17--17|
||--------------------------------------|4^b-7^b-9^b--19^b-------19^b-------19^b-|
||---------------------------------------|---------------------------------------|
||---------------------------------------|---------------------------------------|
||---------------------------------------|---------------------------------------|


||---------------------------------|--------------------------------|--------------|
||20^17----17-20^17----17-20^17----|17-20^17----17-20^17----17-20^17|--------------|
||-----19^b--------19^b--------19^b|-------19^b--------19^b---------|19^b^19-17-19-|
||---------------------------------|--------------------------------|--------------|
||---------------------------------|--------------------------------|--------------|
||---------------------------------|--------------------------------|--------------|



||20^b-rb^20^17-20^17--------|20^b--rb^20^17--20^17---------|20^b^20-17----------|
||------------------20^17----|---------------------20^17----|---------20^b^20-17-|
||----------------------19^17|-------------------------19^17|------------------19|
||---------------------------|------------------------------|--------------------|
||---------------------------|------------------------------|--------------------|
||---------------------------|------------------------------|--------------------|


          
 ||-------------------||
 ||-------------------||
 ||--19^b~~~----------||
 ||-------------------||
 ||-------------------||
 ||-------------------||





Comments


Popular Ozzy Osbourne tabs & chords
Flying High Again Bass Tabs
Here For You 1 Chords
Crazy Train 2 Drum Tabs
Breaking All The Rules Tabs
Crazy Train 5 Tabs
Mama Im Coming Home Tabs
Mr Crowley Live Tabs
No Place For Angels Tabs
Perry Mason Tabs
Revelation Mother Earth 2 Tabs


Song lyrics



↑ Back to top | Tablatures and chords are parodies/interpretations of the original songs. You may use it for private study, scholarship, research or language learning purposes only
© 2014 AZChords.com Contact us | Privacy policy | DMCA | Add/correct tabs | Request tabs | Top 50 tabs