>
 >
Desire

Desire Guitar Tabs

Ozzy Osbourne - Desire chords, tabs, tablatures, lyrics

Guitar lessons | Add/correct | Request | Top 50 tabs Artists:  A B C D E F G H I J K L M N O P Q R S T U V W X Y Z 0-9

Desire Guitar Tabs – Ozzy Osbourne

CD, Sheet music, Poster

Do you like Desire? Share with your friends now
Bass TabsTabs
Tune down 1/2 step: Eb Ab Db Gb Bb Eb


|-----------------------------------------------------------
|-----------------------------------------------------------
|-----------------------------------------------------------
|-----------------------------------------------------------
|-4-4---4-4-4---4-4-4---4-4-4-------------------------------
|-2-2---2-2-2---2-2-2---2-2-2--and on and on...-------------

                                                  ||1st================||
|-----------------------------------------------------------------------
|--------------------------5--4----------------------------------------- 
|-2-----------4------------4--4---2-----------4----------------4^^(4)p2-
|-2-----------4-------------------2-----------4----------2--------------
|--------------------------------------------------------2--------------
|-----------------------------------------------------------------------

2nd=====================================||
|-----------------------------------------
|-----------------------17--17--17--17-\--
|-----------------------16^-16^-16^-16^\--
|-----------------------------------------
|-4--4----4--4--4--/-\--------------------
|-2-------2--2--2-------------------------

|---------------------------------------------------------------------
|---------5------x------------5------5-4-------------5----x-4---------
|---------4------x--4---------4------4-4-------------4----x-4---------
|-4-------2------x--4---------2------2-4------4------2----x-4------2--
|-4-----------------2-----2-2----2-2----------4-------------2----2-2--
|-2--2-2----------------------------------x-x-2--0-2-------------0-0--

|-----------------------------------------------------------
|---------5------x-----------5------5-4---------------------
|---------4------x--4--------4------4-4---------------------
|---------2------x--4--------2------2-4------4--------------
|-4-----------------2----2-2----2-2----------4--------------
|-2--0-2---------------------------------x-x-2--0-2-repeat as above...

"I always knew what i wanted to be..."
|--------------------------------------------------------------------
|--------------------------------5--5--------------------------------
|-PM...........................--4--4--------4--4--------------------
|--------------------------------2--2--------4--4--------2-----2-----
|-4-4-4-4-4-4-4-4-4-4-4-4-4-4-4--------------2--2-----2--2-----2--4--
|-2-2-2-2-2-2-2-2-2-2-2-2-2-2-2-----------------------0--0-----0--2--

"It drives them crazy....cause i wont be cool"
|-----------------------------------------------------------
|---------------5-------------------------------------------
|---------------4-----------------4-----------------2-------
|-2p0-----------2-----------------4-----------------2-------
|-2p0--4--4--4-----------4--4--4--2--------4--4--4--0-------
|------2--0--2-----------2--0--2-----------2--0--2----------

"It's the same old desire..."
|-----------------------------------------------------------
|-----------------------------------------------------------
|-4--4--4--4--4-------------2--------------------4~~~~~~--2-
|-4--4--4--4--4-------4-----0------2---2------x--4--------2-
|-2--2--2--2--2---4---4-----0------2---2------x-------------
|-----------------2---2--------------0----------------------

HALF TIME FEEL:
|----------------------------|------------------------------
|-----------------PH---------|-------------PM---------------
|------------------4~~~~~~~--|--------------4~~~~--2--------
|------------------4---------|--------------4------2--------
|-2-4------4-----------------|-2-4------4-------------------
|-0-2----0-2-----------------|-0-2----0-2-------------------

|------------------\--//-----|------------------------------
|-------------PH-4^\\//------|-------------PM---------------
|----------------4^-^^-------|--------------4~~~~--2--------
|----------------------------|--------------4------2--------
|-2-4------4-----------------|-2-4------4-------------------
|-0-2----0-2-----------------|-0-2----0-2-------------------end half time feel


Solo:
|-7-----------7----------7-----------7----------7----------------
|---10p7-10^----10p7-------10p7-10^----10p7-------10p7-----10/12-
|--------------------9^---------------------9^---------10^-------
|----------------------------------------------------------------
|----------------------------------------------------------------
|----------------------------------------------------------------

|-9----------9----------10-10-----12------12---14-------------------------
|---12p9-12^---12p9--------13^----15^-----15^--17^-17^17^17^17^17^17^-^17-
|-------------------11^---------------------------------------------------
|-------------------------------------------------------------------------
|-------------------------------------------------------------------------
|-------------------------------------------------------------------------

|-14--------19^\-|---------------------2-5-|-2h5p2---\--//--
|-----17~~-------|-----------------2-5-----|-------4^\\//---
|----------------|-------------2-4---------|-------4^-^^----
|----------------|---------2-4-------------|----------------
|----------------|-----2-4-----------------|----------------
|----------------|-2-5---------------------|----------------

|-------------------------|---21-----------21^--^21--21--20--19-|
|-21^-^21p19----19~~-21^--|------21^--19--x---------------------|
|------------20-----------|---------------x---------------------|
|-------------------------|-------------------------------------|
|-------------------------|-------------------------------------|
|-------------------------|-------------------------------------|

|-19^-19^-19^-19^-19p17-------|-----------------------|
|-----------------------19^-\-|----2-5p2----2-5p2-----|
|-----------------------------|-4^-------4^-------4^--|
|-----------------------------|-----------------------|
|-----------------------------|-----------------------|
|-----------------------------|-----------------------|

|------------------------|----------------------------------|
|----7-10p7----7-10p7----|------9-12p9------9-12p9----------|
|-9^--------9^--------9^-|-11^---------11^---------11^~~----|
|------------------------|----------------------------------|
|------------------------|----------------------------------|
|------------------------|----------------------------------|

|---------------------------14-|-171614--14-191714--14-171614--14-191714--14-|
|------14-17p14--17^--\-/17----|-------17---------17---------17---------17---|
|-16^--------------------------|---------------------------------------------|
|------------------------------|---------------------------------------------|
|------------------------------|---------------------------------------------|
|------------------------------|---------------------------------------------|

|-171614---14-191714---14-19^~~~--\-|
|-------17----------17--------------|
|-----------------------------------|
|-----------------------------------|
|-----------------------------------|
|-----------------------------------|
Palm Mute:
|---------------------------------|---------------------------------|
|---------------------------------|---------------------------------|
|-4-2-----4-2-4-2-----4-2-4-2-----|-4-2-4-2-----4-2-4-2-----4-2-----|
|-----4-2---------4-2---------4-2-|---------4-2---------4-2-----4-2-|
|---------------------------------|---------------------------------|
|---------------------------------|---------------------------------|
w/ slide:
|-----------------------------------------------------------
|----------5-/(6)/-7---7-/-9--9-/-12--14/----17^------------
|--3-/-4-/-5-/(6)/-7---7-/-9--9-/-12--14/-------------------
|--3-/-4-/-5-/(6)/-7---7-/-9--9-/-12------------------------
|-----------------------------------------------------------
|-----------------------------------------------------------





Comments


Popular Ozzy Osbourne tabs & chords
Gets Me Thru Bass Tabs
Mr Crowley 2 Bass Tabs
Here For You Chords
Centre Of Eternity Tabs
Flyin High Again Tabs
Flying High Again 1 Tabs
I Just Want You 1 Tabs
Mama Im Comin Come Tabs
That I Never Had Tabs
Mama Im Coming Home Ukulele


Song lyrics



↑ Back to top | Tablatures and chords are parodies/interpretations of the original songs. You may use it for private study, scholarship, research or language learning purposes only
© 2014 AZChords.com Contact us | Privacy policy | DMCA | Add/correct tabs | Request tabs | Top 50 tabs