» » »

Ozzy Osbourne, Crazy Train Tabs (ver.3)

Artists:  A B C D E F G H I J K L M N O P Q R S T U V W X Y Z # 

Crazy Train Tabs (ver.3)

Ozzy Osbourne Tabs
 Rating:
4/5 (4 votes)
Crazy Train lessons Tabs too difficult? Try these video lessons and learn fast
1
                |-----------------------------------------------------------------------------------|
|-----------------------------------------------------------------------------------|
|-------------0-0----------------0--------------------------------------------------|
|-------------2-2---------7-7----2--------------------------------------------------|
|--4-4---7-7--2-2---4-4---5-5----2--------------------------------------------------|
|--2-2---5-5--------2-2-------------------------------------------------------------|
do that a couple of times then slide down the neck with your pick on the e&a string then you play this.. its really the bass part you know i like playin it anyway when i dont have a bass player around...
|-----------------------------------------------------------------------------------|
|-----------------------------------------------------------------------------------|
|-----------------------------------------------------------------------------------|
|-----------------------------------------------------------------------------------|
|-------4----5---4----2---------2---------------4----5---4----2------2--------------|
|--2-2---2----2----2----5-4-5----5-4-0------2-2----2---2---2----5-4-5---5-4-0------| 

|-------------------------------------------0---------------------------------------|
|-------------------------------------------3---------------------------------------|
|-------------------------------------------2---1-----------------------------------|
|-----------------------------------------------2-----------------------------------|
|--------4------5-----4p2-----------------------2-----------------------------------|
|---2-2-----2------2----------------------------------------------------------------|



|---------0---------0--------0---------0--------------------------------------------|
|---------5---------5--------3---------2--------------------------------------------|
|---------6---------4--------2---------2--------------------------------------------|
|---------7---------6--------4---------2--------------------------------------------|
|--0-0-0----0-0-0-----0-0-0-----0-0-0-----------------------------------------------|
|----------------------------------------------------------------------------------|

other part
|-----------------------------------------------------------7-----------------------|
|-----------------------------------------------------------7---7f------------------|
|-----------------------------------------------------------7---7f------------------|
|-----------------------------------------------------------7---7f------------------|
|-4-------2----------0---------------------4-------4--------7---7f------------------|
|-2---0---4---1---3---3--1---0--1--3-------2---0---2---1--3-------------------------|

the part where it goes 7f it means put ur finger right above the fret wire between the 7th and 8th fret (harmonics), pick right up the fret wire d, g, b, corrections are appreciated- tom
            
Submit corrections

comments powered by Disqus
↑ Back to top | Ozzy Osbourne Tabs for Crazy Train. Lyrics for acoustic guitar and electric guitar. 1 Tablatures and chords are parodies/interpretations of the original songs. You may use it for private study, scholarship, research or language learning purposes only