» » »

Ozzy Osbourne, Crazy Train Tabs (ver.2)

Artists:  A B C D E F G H I J K L M N O P Q R S T U V W X Y Z # 

Crazy Train Tabs (ver.2)

Ozzy Osbourne Tabs
Rating:
0/5 (0 votes)
Crazy Train lessons Tabs too difficult? Try these video lessons and learn fast
                Solo:
-14^10^7^10^14^10^7^10^14^10^7^10^14^10^7^10^14^10^7^10^15^10^7^10^15^10^7^10^
-t--p--p--h--t-p--p--h--t-p--p--h--t-p--p--h--t-p--p--h--t-p--p--h--t-p--p--h-
							^
						      ^b:1^
-----------------------------------------------------^------^-----------------
^15^10^7^10--9^12^9^12^9^12^9^12^9\7^10^7^10^7^10^7--|--10--|-----------------
---------------------------------sl.-----------------9------9-----------------
--t-p--p--h-----h-p--h-p--h-p--h-p----h-p--h-p--h-p---------------------------
	     b:1                b:1
	      ^                  ^
-17--16--14---|-----14--16--17--17------14--17^14-------14--------------------
-------------17--------------------------------p---17------17--14--15^14-15^14
			     ^
			   ^b:1^
-------------------------^-------^-----------------------14^17^14^17^14^17^14/
-------------------------|--17---|-----------------14^17----h---p--h--p-h--p--
17^14--16^14------------16------16^14--------14^16----h-----------------------
---p------p----16^14---------------p------------h-----------------------------
------------------p-----------------------------------------------------------


/16^19^16/17^21^17^21^17^21^17^21^17^21^17\16^19^16^19^16^19^16\14^17^14^17^--
sl---h-p sl-------------------------------------------------------------------
		^
	      ^b:1^                           |--light P.M.--------------|
^14^17^14---^--17---^---------------------------------------------------------
-----------17------17-----17--14----------------------------------------------
-----------------------------------16--14------14--------------14-------------
-------------------------------------------16------16--14----------16--14-----
-----------------------------------------------------------16--------------16-


------------------------------------------------------------14--17^16^14------
---------------------------------------------------------17-------------------
14--13^14^13----16-14^13-------16---------------14-16/18----------------------
--------h--p-----------p----16------------14-16------sl-----------------------
-------------------------------------14-16------------------------------------
	       b:1   b:1
		^     ^
19^17--19^17---19----19----|
----p------p---------------|
---------------------------|          
---------------------------|
---------------------------|
            

comments powered by Disqus
↑ Back to top | Ozzy Osbourne Tabs for Crazy Train. Lyrics for acoustic guitar and electric guitar. Tablatures and chords are parodies/interpretations of the original songs. You may use it for private study, scholarship, research or language learning purposes only