>
 >
Budokan

Budokan Guitar Tabs

Ozzy Osbourne - Budokan chords, tabs, tablatures, lyrics

Guitar lessons | Add/correct | Request | Top 50 tabs Artists:  A B C D E F G H I J K L M N O P Q R S T U V W X Y Z 0-9

Budokan Guitar Tabs – Ozzy Osbourne

CD, Sheet music, Poster

Do you like Budokan? Share with your friends now
Tabs
Use heavy dist. In all the song.

Harm.=harmonic
P.H.=pinch harmonic
~=vibrato
//=tremolo picking
b=bend up
r=release bend up
h=hammer on
p=pull of
7/9=slide 7 to 9

Intro(x2): 
|----------------------------------------------------
|----------------------------------------------------
|-----------------------7-7--9-9---------------------
|-4-4--7-7--2-2--4-4br--7-7--9-9--4-4br--------------
|-4-4--7-7--2-2--4-4br--5-5--7-7--4-4br--------------
|-2-2--5-5--0-0--2-2br------------2-2br--------------

Let each ring.

Then Zakk made some strange sounds with a lot of harmonics that I couldn’t tab. 

Main Riff  P.H. (This is hard because Zakk Wylde is the best with harmonics)
|-------------------------------------------
|-------------------------------------------
|-------------------------------------------
|-------------------------------------------
|-----4---5---4----2--------2---------------
|-2-2---2---2---2-----5-4-5---5----3*-------
*I don’t know what does he do here but I play this:

N.H.
|--3br---
   //
 
Then:
|-----------------------------
|-----------------------------
|-----------------------------
|--9---11---------------------
|--9---11---------------------
|--7---9----------------------


2nd. Riff:
|-------------------------------------------
|------2------5--------3------2-----2-------
|------2------4--------2------2-----2-------
|------2------6--------4------2-----2-------   x2
|-0-00---0000-----0000----0-0----0----------
|-------------------------------------------

2nd. Riff(2nd. Time)
Play very, VERY FAST!!!
|---------------------------------|
|--4—2-0--------------------------|
|--------4-2-0--------------------|
|--------------4-2-0--------------|
|--------------------3------------|
|---------------------------------|

Then keep repeating the 2nd. Riff until the chorus.

Chorus:

|-----------|-----------------|-----------|--------------------|--------------|
|-----------|----------Harm.--|-----------|---------Harm.------|--------------|
|-----------|-------7-----7---|-----------|-------7--7---------|-2------------|
|-4---4-----|-4-----7---7-----|-4---4-----|-4-----7----7--P.H.-|-2-----2------|
|-4---4-----|-4-----5---------|-4---4-----|-4-----5-------4-2--|-0-----2------|
|-2-0-2-----|-2-0-------------|-2-0-2-----|-2-0----------------|---4-2-0--2-4-|

fill
|------2-----------------------------------------------------|
|----2---5-2-3-2---2-----------------------------------------|
|-4--------------5---5-2-4-2---------------------------------|
|----------------------------4-2-----------------------------|
|--------------------------------4-3-2-3-2---3-2-3-2-3-2-----|
|------------------------------------------5-------------5-2-|

|----------------------------------------------------------------------|
|----10-13-10—-14-11—-15-12—-16-13—-17-14--18-15--19-16--20-17---------|
|-/11--------11-----12-----13-----14-----15-----16-----17-----18-------|
|----------------------------------------------------------------------|
|----------------------------------------------------------------------|
|------------------------------------------------------------------20\-|

|--------------------------------16---------17---------18--------------|
|--------14-17^14----15-18^15------19^16------20^17------21^18-21^b~~~-|
|-16-16^b--------17^b--------18^b-------19^b-------20^b----------------|
|----------------------------------------------------------------------|
|----------------------------------------------------------------------|
|----------------------------------------------------------------------|

Solo (It’s the same as the studio version, i took this solo from ibanez 3732 tab)

-14^10^7^10^14^10^7^10^14^10^7^10^14^10^7^10^14^10^7^10^15^10^7^10^15^10^7^10^
-t--p--p--h--t-p--p--h--t-p--p--h--t-p--p--h--t-p--p--h--t-p--p--h--t-p--p--h-
							^
						      ^b:1^
-----------------------------------------------------^------^-----------------
^15^10^7^10--9^12^9^12^9^12^9^12^9\7^10^7^10^7^10^7--|--10--|-----------------
---------------------------------sl.-----------------9------9-----------------
--t-p--p--h-----h-p--h-p--h-p--h-p----h-p--h-p--h-p---------------------------
	     b:1                b:1
	      ^                  ^
-17--16--14---|-----14--16--17--17------14--17^14-------14--------------------
-------------17--------------------------------p---17------17--14--15^14-15^14
			     ^
			   ^b:1^
-------------------------^-------^-----------------------14^17^14^17^14^17^14/
-------------------------|--17---|-----------------14^17----h---p--h--p-h--p--
17^14--16^14------------16------16^14--------14^16----h-----------------------
---p------p----16^14---------------p------------h-----------------------------
------------------p-----------------------------------------------------------


/16^19^16/17^21^17^21^17^21^17^21^17^21^17\16^19^16^19^16^19^16\14^17^14^17^--
sl---h-p sl-------------------------------------------------------------------
		^
	      ^b:1^                           |--light P.M.--------------|
^14^17^14---^--17---^---------------------------------------------------------
-----------17------17-----17--14----------------------------------------------
-----------------------------------16--14------14--------------14-------------
-------------------------------------------16------16--14----------16--14-----
-----------------------------------------------------------16--------------16-


------------------------------------------------------------14--17^16^14------
---------------------------------------------------------17-------------------
14--13^14^13----16-14^13-------16---------------14-16/18----------------------
--------h--p-----------p----16------------14-16------sl-----------------------
-------------------------------------14-16------------------------------------
	       b:1   b:1
		^     ^
19^17--19^17---19----19----|
----p------p---------------|
---------------------------|             play riff 1
---------------------------|
---------------------------|
---------------------------|

Then just play the main riff and the 2nd riff a lot of times (listen to the song)





Comments


Popular Ozzy Osbourne tabs & chords
11 Silver Bass Tabs
Flying High Again 1 Bass Tabs
Diggin Me Down Tabs
Facing Hell Tabs
Fire In The Sky Tabs
Gets Me Through 3 Tabs
I Want It More Tabs
No More Tear 1 Tabs
Soul Sucker Tabs
Dreamer Ukulele


Song lyrics



↑ Back to top | Tablatures and chords are parodies/interpretations of the original songs. You may use it for private study, scholarship, research or language learning purposes only
© 2014 AZChords.com Contact us | Privacy policy | DMCA | Add/correct tabs | Request tabs | Top 50 tabs