» » »

Ozzy Osbourne, Believer Tabs (ver.3)

Artists:  A B C D E F G H I J K L M N O P Q R S T U V W X Y Z # 

Believer Tabs (ver.3)

Ozzy Osbourne Tabs
Rating:
3/5 (2 votes)
Believer lessons Tabs too difficult? Try these video lessons and learn fast
                This is most of the song but seeings as im only 13 i am doing okay...
h/=hammer on     r/ let ring
p/=pull off
s/=slide
||=repeat twice
*=muffle
believer by ozzy osbourne
e-----------------------|------------------------|----------||
b-----------------------|------------------------|-----7s/8-||
g--------------------2-4|------------------------|-----6s/7-||
d-----------s/5-4-------|---2---s/5-4-----------4|-----4s/5-||
a-------0-2-------------|-----3-------0/h4h/6----|-2--4s/5--||
e-----------------------|------------------------|-0--------||

e-----------------------------------------------------------------||
b-------------------------------0---------------------------------||
g--9--9-----------------999-----0--9--9-----------------999-s/9---||
d--9--9---4h/5p/4-4-----999--4-7---9--9---4h/5p/4-4-----999----9-8||
a--7**7**--------7-5s/9-777--2-5---7**7**--------7-5s/9-777-------||
e-----------------------------------------------------------------||

intro again...

acoustic part
e--------0-----------0-----------0------0---------|------0-----------0-------|
b---1-0----0-1--1-0----0-1-----0---0-1---1-3-1-0-1|--1-0----0-1--1-0----0-1--|
g-------2-2---------2-2-------2-2-2---------------|-----2-2---------2-2------|
d--------------3-----------4------------------2---|------------3-----------4-|
a-0-----------------------------------------------|-0------------------------|
e-------------------------------------------------|--------------------------|

e----0-----------0---|
b--0---0-1------3-3--|
g-2-2-2-------4----4-|
d------------2-------|
a--------------------|
e----------0---------| end of acoustic part... put back to distorted on amp.

e--------------------------------------------------------|
b------------------s/5---5---------------------s/5---5---|
g---------------------4-3-4-3---------------------4-3-4-3|
d-3--3--3---------------------5--5--5--------------------|
a-1**1**1**-p/0---------------3**3**3**-p/0--------------|
e---------------3-2-------------------------3-2----------|

e------------------------------------------------|i havnt worked out the
b------------------s/5---5-----------------------| solo yet.
g---------------------4-3-4-3--------------------|
d-3--3--3-------------------------------------5r/|
a-1**1**1**-p/0---------------7--7--7-7-7-7-7-3r/|
e---------------3-2-----------5**5**5-5-5-5-5----|

e--------------------------------------------------------|
b------------------s/5---5---------------------s/5---5---|
g---------------------4-3-4-3---------------------4-3-4-3|
d-3--3--3---------------------5--5--5--------------------|
a-1**1**1**-p/0---------------3**3**3**-p/0--------------|
e---------------3-2-------------------------3-2----------|

e---------------------------------------------------------------------------|
b------------------s/5---5--------------------------------------------------|
g---------------------4-3-4-3---------------------------------9--9----------|
d-3--3--3-------------------------------------5r/---------4---9--9--4h/5p/4-|
a-1**1**1**-p/0---------------7--7--7-7-7-7-7-3r/-3h/5p/3-2---7**7**--------|
e---------------3-2-----------5**5**5-5-5-5-5--------------3r/--------------|

e-------------------------------------------------||
b-----------------0-------------------------s/9---||
g----------999----0-9--9-----------------999---9-8||
d--4-------999-4-7--9--9---4h/5p/4-4-----999------||
a-7-7-5s/7-777-2-5--7**7**--------7-5s/7-777------||
e-------------------------------------------------||

e-----------------------|------------------------|----------||
b-----------------------|------------------------|-----7s/8-||
g------------------2-4--|------------------------|-----6s/7-||
d-----------s/5-4-------|---2---s/5-4-----------4|-----4s/5-||
a-------0-2-------------|-----3-------0/h4h/6----|-2---4s/5-||
e-----------------------|------------------------|-0--------||

e----------------------------||||
b----------------------------||||
g----------------------------||||repeat 4 times!!
d------s/5-4r/--2---s/5-4r/--||||
a---0-2----------3-----------||||
e----------------------------||||
            
Submit corrections

comments powered by Disqus
↑ Back to top | Ozzy Osbourne Tabs for Believer. Lyrics for acoustic guitar and electric guitar. Tablatures and chords are parodies/interpretations of the original songs. You may use it for private study, scholarship, research or language learning purposes only