>
 >
Believer 1

Believer 1 Guitar Tabs

Ozzy Osbourne - Believer 1 chords, tabs, tablatures, lyrics

Guitar lessons | Add/correct | Request | Top 50 tabs Artists:  A B C D E F G H I J K L M N O P Q R S T U V W X Y Z 0-9

Believer 1 Guitar Tabs – Ozzy Osbourne

CD, Sheet music, Poster

Do you like Believer 1? Share with your friends now
Bass TabsTabsTabs v2Tabs v3Tabs v4
----------------------------------------------------------------------

Beliver
Ozzy Osbourne, Randy Rhoads, Bob Daisley

I don't know if this is completely right, but I saw the other tabs on the net and they 
suck, so here goes.
|------------------------------------------------------------------|
|-----------------5----------------------------7--8----------------|
|--------------2-------------------------------6--7-----------7\---|
|-----5-4~~---(4)----2---5-4~~-------4---------4--5-------x-x-7\---|
|-0-2------------------2---------5/6----2-----------------x-x-5\---|
|---------------------------------------0-----------------x-x------|

|-----------------------------0----------------------------0-------|
|------------------------------------------------------------------|
|---------------------------2-------------------4------7-----------|
|-----------------4h5p4p2-4---------------------4------7-----------|
|-x-x-x-x-x-x-x-x---------------x-x-x-x-x-x-x-x-2------5-----------|
|-x-x-x-x-x-x-x-x---------------x-x-x-x-x-x-x-x--------------------|

|-----------------------------0-----------------12----12~~~~~~~----|
|-------------------------------------------8------------11~~~~----|
|---------------------------2---------------9----------------------|
|-----------------4h5p4p2-4----------------------------------------|
|-x-x-x-x-x-x-x-x---------------x-x-x-x-x-x-x-x--------------------|
|-x-x-x-x-x-x-x-x---------------x-x-x-x-x-x-x-x--------------------|

"youve got to believe in yourself..."
|------------------------------------------------------------------|
|------------------------------------------------------------------|
|11-----------x-7----------x-4-------------------------------------|
|11-----------x-7----------x-4---------wah-------------------------|
|-9-----------x-5----------x-2-----------------12*-----------------|
|--------------------------------------0h------dive----------------|

"I cant belive they stop and stare..."            1st time:
|---------0---------------0---------------0-------|---0--------------|
|---1---1---1---1-----1-----1---1-----1-----1---1-|-------3-1---0-3--|
|-----4-------4-----4---4-----4-----2---2-----2---|-----4-----1------|
|-2---------------3---------------4---------------|------------------|
|-0---------------0-------------------------------|------------------|
|-------------------------------------------------|-0----------------|
2nd time:         ***1st and 3rd time***
|---------0-------|---------------------------------|-12---------12---------|
|-----3-----3---3-|---------------------------------|----12-11~~----12-11~~-|
|---4---4-----4---|-3-------3-------3---------------|-----------------------|
|-----------------|-3-------3-------3---------------|-----------------------|
|-----------------|-1---x-x-1---x-x-1---x-x-1-0-----|-----------------------|
|-4---------------|-----------------------------3-2-|-----------------------|
3rd Time:
|------------------------------12---------12---------|
|---------------------------------12-11~~----12-11~~-|
|-5------5------5------------------------------------|
|-5------5------5------------------------------------|
|-3--x-x-3--x-x-3--x-x-3-0---------------------------|
|--------------------------3-2-----------------------|
4th
|---------------------------------|
|---------------------------------|
|----------------------------5----|
|-7------7------7------------5----|
|-7------7------7-----0-2--0-3----|
|-5--x-x-5--x-x-5-----------------|

Solo:
I think the solo is right, but if not just correct me.

|------12-------------12--------------12--------------12-----------|
|---------15-12----------15-12------12--15-12-------12---15-12-----|
|-14^-----------14^------------14^------------14^------------------|
|------------------------------------------------------------------|
|------------------------------------------------------------------|
|------------------------------------------------------------------|

|-15p12----12---------------------------------------------------------------|
|-------15----15-12-15p12----12---------------------------------------------|
|-------------------------14----14-12-14p12----12----------------12-12-14---|
|-------------------------------------------14----14-12-14p12-14------------|
|---------------------------------------------------------------------------|
|---------------------------------------------------------------------------|

|----------------------------12-15-14-12-17-15-14-18-17-15-19-17-15-|
|-------------15----15----15----------------------------------------|
|-14-12-14/16----16----16-------------------------------------------|
|-------------------------------------------------------------------|
|-------------------------------------------------------------------|
|-------------------------------------------------------------------|

|-20-19-17-22-20-19-19h20p19h20p19h20p19----19---------------------|
|----------------------------------------22----22-20---------------|
|----------------------------------------------------21^---^^------|
|------------------------------------------------------------------|
|------------------------------------------------------------------|
|------------------------------------------------------------------|

|-15p12----15p12-14p12----12---------------15p12-14p12-------15----|
|-------14-------------14------------------------------14/17-------|
|------------------------------------------------------------------|
|------------------------------------------------------------------|
|------------------------------------------------------------------|
|------------------------------------------------------------------|

|-19p15----19p15-----------------------18p15------15---18~~~~~~----|
|-------17-------17--------------------------17--------------------|
|----------------------------------------------hold note-----------|
|------------------------------------------------------------------|
|------------------------------------------------------------------|
|------------------------------------------------------------------|

|-18p15h18p15----15-18p15---------21~~~~~~~~~~---------------------|
|-------------17----------17/20~~~~~~~~~~~~~~~---------------------|
|------------------------------------------------------------------|
|------------------------------------------------------------------|
|------------------------------------------------------------------|
|----------------------------------------------20\-----------------|

|--------------------------------------------7h8h10p8p7-8p7----7----|
|-------------------------------------7h8h10----------------10---10-|
|-------------------------4h5h7-5h7h9-------------------------------|
|-------------------4h5h7-------------------------------------------|
|-------2h3h5-3h5h7-------------------------------------------------|
|-2h3h5-------------------------------------------------------------|

|------------------------------------------------------------------|
|-8-7\5h7p5--------------------------------------------------------|
|-----------7--5\4-----4h5p4----------------0|---------------------|
|-------------------7--------7--5--4-----4----\dive----------------|
|-------------------------------------7--------\-------------------|
|------------------------------------------------------------------|





Comments


Popular Ozzy Osbourne tabs & chords
Mama Im Commin Home Bass Tabs
Over The Mountain 2 Bass Tabs
Crazy Train 3 Tabs
Diggin Me Down Intro Tabs
Gets Me Through 2 Tabs
Junkie Tabs
Miracle Man 3 Tabs
Mr. Tinkertrain Tabs
Symptom Of The Universe Tabs
Crazy Train Ukulele


Song lyrics



↑ Back to top | Tablatures and chords are parodies/interpretations of the original songs. You may use it for private study, scholarship, research or language learning purposes only
© 2014 AZChords.com Contact us | Privacy policy | DMCA | Add/correct tabs | Request tabs | Top 50 tabs