» » »

Almighty Dollar Bass tabs (ver.1)

Artists:  A B C D E F G H I J K L M N O P Q R S T U V W X Y Z # 

Almighty Dollar Bass tabs (ver.1)

Ozzy Osbourne
Rating:
5/5 (2 votes)
Tabs too difficult? Try these video lessons and learn fast.
                Band: Ozzy Ozbourne
BASS TAB
Tuning: Drop C

Intro:

F|------------------|
C|------------------|
G|------------------| (x3)
C|--0--0--5-4-0--5--|

F|---------------------------|
C|---------------------------|
G|---------------------------|
C|--0--0--5-4-0---5~~~4~~~0--|

Verse (x10)

F|-------------------------|
C|-------------------------|
G|-------------------------|
C|--7-9--9-6-7-5-6--9-7-8--|

Chorus:

F|-----------|-----------|-----------|-----------|
C|-----------|-----------|-----------|-----------|
G|-----------|-----------|-----------|-----------|
C|--4-4-4-4--|--4-4-4-4--|--4-4-4-4--|--4-4-4-4--|

F|-----------|-----------|-----------|
C|-----------|-----------|-----------|
G|-----------|-----------|-----------|
C|--5-5-5-5--|--5-5-5-5--|--5-5-5-5--|

F|-------------------------|
C|-------------------------|
G|-------------------------|
C|--5-4-0--5~~~~4~~~~0--5--|

F|-----------|-----------|-----------|-----------|
C|-----------|-----------|-----------|-----------|
G|-----------|-----------|-----------|-----------|
C|--4-4-4-4--|--4-4-4-4--|--4-4-4-4--|--4-4-4-4--|

F|-----------|-----------|-----------|
C|-----------|-----------|-----------|
G|-----------|-----------|-----------|
C|--5-5-5-5--|--5-5-5-5--|--5-5-5-5--|

F|-------------|
C|-------------|
G|-------------|
C|--5~~~4~~~0--|

F|-------------------------------|
C|-------------------------------|
G|-------------------------------| (x2)
C|--0~~~~~~~5-4-0--5-4-0--5-4-0--|

F|---------------------|
C|---------------------|
G|---------------------|
C|--0~~~~~~~5~~~4~~~0--|

Pre Chorus 1:

F|------------------|
C|------------------|
G|------------------| (x3)
C|--0--0--5-4-0--5--|

F|---------------------------|
C|---------------------------|
G|---------------------------|
C|--0--0--5-4-0---5~~~4~~~0--|

Verse (x8)
Chorus

Pre Chorus 2:

F|------------------|
C|------------------|
G|------------------| 
C|--0--0--5-4-0--5--|

F|---------------------------|
C|---------------------------|
G|---------------------------|
C|--0--0--5-4-0---5~~~4~~~0--|

Bridge (x2)

F|-------------------------------------|
C|-------------------------------------|
G|-------------------------------------|
C|--0-0--0-0--0-0--0-0--0-0--0-0--0-0--|

F|-------------------------------------|
C|-------------------------------------|
G|-------------------------------------|
C|--0-0-1--5-4-0--5-4-0--5-4-0--0-0-1--|

During Solo:

F|-------------------------------------|
C|-------------------------------------|
G|-------------------------------------|
C|--0-0--0-0--0-0--0-0--0-0--0-0--0-0--|

F|-------------------------------------|
C|-------------------------------------|
G|-------------------------------------|
C|--0-0-1--5-4-0--5-4-0--5-4-0--0-0-1--|

F|-------------------------------------|
C|-------------------------------------|
G|-------------------------------------|
C|--0-0--0-0--0-0--0-0--0-0--0-0--0-0--|

F|-------------------------------------|
C|-------------------------------------|
G|-------------------------------------|
C|--0-0-1--5-4-0--5-4-0--5-4-0--0-0-1--|

F|--------------------------------------|
C|--------------------------------------|
G|--------------------------------------|
C|--8-7-6--7-6-5--6-5-4--4~~~~~~~~~~~~--|

There's no bass during the singing and piano solo.

Instrumental Riff:

F|-----------------------------|
C|-----------------------------|
G|-----------------------------|
C|--0-0--5-4--0-0--5-4--5-7-9--|

F|----------------------------------------------|
C|----------------------------------------------|
G|----------------------------------------------|
C|--5-4--5-4--5-7--5-7-9--5~~~~~~~~~~~~~-0-0-0--|

Chorus
Pre Chorus 1

END
            
Tabs too difficult? Try these video lessons and learn fast.


comments powered by Disqus
↑ Back to top | Tablatures and chords are parodies/interpretations of the original songs. You may use it for private study, scholarship, research or language learning purposes only