» » »

Ozzy-Dee Tabs (ver.1)

Artists:  A B C D E F G H I J K L M N O P Q R S T U V W X Y Z # 

Ozzy-Dee Tabs (ver.1)

Ozzy
Rating:
0/5 (0 votes)

Hard to play? Try these video lessons and learn fast.
                I love this song!

-7--------3h5-7|-5---------------------|-*7-----------------------------------
-------3-------|-0---------------------|--7-----------------------------------
---------------|-----------------------|--7-----------------------------------
-5-------------|-0---------------------|--7-----------------------------------
---------------|-----------------------|--------------------------------------
---------------|-----------------------|--------------------------------------
*harm. 

-7--------------7----|10--------------10----|---------------12|----12---------
-------7-----7-------|--------8------------8|-----------10----|---------------
----7-----7---------7|-----7------7---------|--------9--------|---------------
-9-------------------|-9--------------------|-9/11------------|---------------
---------------------|----------------------|-----------------|---------------
---------------------|----------------------|-----------------|---------------


--7--------------7|-------------------|------------------|--------------------
------------7h8---|---10--------------|---8---------8----|-7------5-------3---
---------7--------|-------------------|--------6---------|--------------------
------------------|-------------------|------------------|--------------------
-10---------------|----9--------------|---7--------------|-5------4-------2---
------------------|-------------------|------------------|--------------------


-0-----------------0----|---------------------|-----------------------|-------
----------0-------------|--5p3-------------3--|---3-------------3-----|-------
------------------------|----------6----------|-------------2-------2-|-------
------------------------|---------------------|---4-----4-------------|-------
------------------------|--0------------------|-----------------------|-------
-3----------------------|---------------------|-----------------------|-------


---0---------------5h7p5p3---|-----2-----------------2----------------------|-
-------------------7-8-7-5---|-------------------0-------0------------------|-
-----------2-----------------|---------------2------------------------------|-
-----------------------------|-----1----------------------------------------|-
-----------------------------|----------------------------------------------|-
-----------------------------|----------------------------------------------|-


---------------------0----2-|-3-----------------|---3p2---2p0-----0---|-------
--------------0-------------|------------0------|--------------3------|-------
--------2-------------------|---------0-----0---|---------------------|-------
----------------------------|------2-----------2|---------------------|-------
--2-------------------------|-------------------|---------------------|-------
---------------------3----2-|-0-----------------|---------4-----------|-------


-------------------------|-*12----------------------|---------------------|---
---2--------------3------|--12----------------------|---------------------|---
-----------0-------------|--12----------------------|-2h4p2p0-------------|---
-------------------------|--12----------------------|----------4p2p0------|---
---0---------------------|--------------------------|----------------4p2p0|---
-------------------------|--------------------------|---------------------|---
*harm. 

----------2---3---5h7p5---|--------------0---|-------2--3--5-----7h9p7---|----
----------3---5---7-------|--3--------3------|-------3--4--7-------------|----
--------------------------|--------0---------|---------------------------|----
---0----------------------|------------------|---0-----------------------|----
--------------------------|--2---------------|---------------------------|----
--------------------------|------------------|---------------------------|----


------------------------|-5p3p2-3p2p0-2p0----|-2p0--------0------|------------
--2---------------3p0---|--------------------|-------3---------5/|------------
-----------0------------|--------------------|-------------------|------------
--2---------------------|-0------------------|-------------------|------------
--0---------------------|--------------------|-4-----------------|------------
------------------------|--------------------|-------------------|------------


-----------------|---------------------|----------------------|---------------
-3--5--2---3--3/5|--2----------3-------|----3-----------------|---------------
-----------------|--0-----0------------|-------------2--------|---------------
-----------------|---------------------|---------------------0|---------------
-2--p--0---------|--0------------------|----------------------|---------------
-----------------|---------------------|----2-----------------|---------------


-----------7--p--5|-------5--p--3--------*7-----------------------------------
-----------8-----7|-------7-----5---------7-----------------------------------
------------------|-----------------------7-----------------------------------
------------------|-----------------------7-----------------------------------
-2p0--------------|-------4---------------------------------------------------
-----------0------|-----------------------------------------------------------
*harm. 

************************************
* Downloaded from                  *
* The Tab Side                     *
************************************
            
Hard to play? Try these video lessons and learn fast. | Correct




comments powered by Disqus
↑ Back to top | Tablatures and chords are parodies/interpretations of the original songs. You may use it for private study, scholarship, research or language learning purposes only