» » »

Ozzy, Mama Im Comin Home Tabs (ver.1)

Artists:  A B C D E F G H I J K L M N O P Q R S T U V W X Y Z # 

Mama Im Comin Home Tabs (ver.1)

Ozzy Tabs
Rating:
0/5 (0 votes)
Mama Im Comin Home lessons Tabs too difficult? Try these video lessons and learn fast
                
Ozzy-Mama Im Comin Home
-Standard Tuning-actual tuning is down 1/2 step, Eb
-Amazing song, and really easy to play-

-Intro-(*full step bend)
-12----------------
----12-------------
-------11b*-9------
-------------------
-------------------
--------------0----
                                                                              
-Intro-
----0------0--------0------0--------0------0--------0------0------------------
------0------0--------0------0--------0------0--------0------0----------------
-/9-----8------8-6------4------4-2------1------1------------------------------
-------------------------------------------------4------2---------------------

-Verse-                                                                              
----0------0--------0------0--------0------0--------0------0------------------
------0------0--------0------0--------0------0--------0------0----------------
-/9-----8------8-6------4------4-2------1------1------------------------------
-------------------------------------------------4------2---------------------

-------0---------------0---------------0-----------0-------0------------------
-----------0--------------0--------0-------0---------0-------0----------------
-----2-------2-------2------2--------1-------1-1/2-----2/4-----4--------------
---2-----------2---2----------2--2--------------------------------------------
-0---------------0------------------------------------------------------------
                                                                              
-PreChorus-
C#m7 A   E Esus4      -Fill1-
-4---5---0---0---|--------7---------------7-------------
-5---5---0---0---|----------7---------------7-----------
-4---6---1---2---|------------8---------------8---------
-6---7---2---2---|------9-------9-------9-------9-------
-4---7---2---2---|----9-----------9---9-----------9-----
-----5---0---0---|--7---------------7-------------------

-Example prechorus-
     C#m7               A               E    Esus4    E     Esus4      E
You took me in and you drove me out, yeah you had me hypnotized, yeah

C#m7                 A                    -Fill1-
Lost and found, and turned around by the fire in your eyes
                                                                              

-Chorus-(chorus pattern to lyrics is easy to figure out when u hear the song)
----------------------------------------------0---------
---------1---------------3---------------0----0---------
-----0-------0-------0-------0-------1-----x--1---------
---2---2---2---2---4---4---4---4---2---2---x--2---------
-3---------------5-----------------2-------x--2---------
-----------------------------------0-------x--0---------
            
Submit corrections

comments powered by Disqus
↑ Back to top | Ozzy Tabs for Mama Im Comin Home. Lyrics for acoustic guitar and electric guitar. Tablatures and chords are parodies/interpretations of the original songs. You may use it for private study, scholarship, research or language learning purposes only