» » »

Ozzy, Gets Me Through Tabs (ver.3)

Artists:  A B C D E F G H I J K L M N O P Q R S T U V W X Y Z # 

Gets Me Through Tabs (ver.3)

Ozzy Tabs
Rating:
0/5 (0 votes)
Gets Me Through lessons Tabs too difficult? Try these video lessons and learn fast
                This riff is used basically throughout the whole song
e|-----------------------|
B|-----------------------|
G|-----------------------|
D|-----------------------|
A|-------4b-----------4b-|
E|0-0--0-2b---0--0--0-2b-|
                      | Fill goes here|
Then play this fill:
e|---------|
B|---------|
G|---------|
D|-----0h3-|
A|-0h3-----|
E|---------|

Bridge
e|----------------------------------------------|--LAST TIME
B|----------------------------------------------|------------
G|9----11-12--9---11-12------12--11-----12--11--|------------
D|-----------------------10----------10---------|------------
A|7----9--10--7---9--10------10--9------10--9---|------------
E|-----------------------8-----------8----------|8888--101010

Solo
e|--------------------------------------
B|--------------------------------------
G|9~~~~-11^(12)11^(12)-11^(12)r11--9~~~~
D|--------------------------------------
A|--------------------------------------
E|--------------------------------------

e|------------------------------------------------------------------
B|------------------------------------------------------------------
G|14^(16)r14-14--12--11-12-------12^(14)r12---12^(14)r12-12--11-12--
D|-------------------------10~------------------------------------10~
A|------------------------------------------------------------------
E|------------------------------------------------------------------
					TRILLS(USE SIDE OF PICK)
e|------------------------------------------------------------------------
B|------------------------------------------------------------------------
G|-----------------------------------9(11)-9(12)-9(14)---9(11)--9(16)-9(14)
D|12-10-9--12-10-9--------------------------------------------------------
A|-----------------12-10-9------------------------------------------------
E|-------------------------12-10-9----------------------------------------

e|----------------15^17-15^17-15-15^17-15-15^17-15-15^17--
B|15^17--15^17p12-------------------------------------------
G|-----------------------------------------------------
D|-----------------------------------------------------
A|---------------------------------------------------------
E|-------------------------------------------------------

e|12------12-------------------------------------------
B|--15^17----15-12------------------------------------------
G|-----------------14^16r14p12--------------------------------
D|-----------------------------14--------------------
A|-----------------------------------------------
E|-------------------------------------------------
			Very Fast
e|--------------------------------------------------------
B|--------------------------------------------------------
G|2^4(hold)--\------1519--1519--1519--1519--1519--1519----
D|----------------16----16----16----16----16----16----16--
A|--------------------------------------------------------
E|--------------------------------------------------------
			Unison bends
e|-----------------------------9--------------------
B|----------------5---4---3----12^------------------
G|2^4(hold)--7^9--7^9-6^8-5^7-----------------------
D|--------------------------------------------------
A|--------------------------------------------------
E|--------------------------------------------------

Durring the chorus in the last part Zakk plays this once

e|-------------------------------------------------
B|-------------------------------------------------
G|4---7--------------------------------------------
D|4---7--------------------------------------------
A|2---5--------------------------------------------
E|-------------------------------------------------
            
Submit corrections

comments powered by Disqus
↑ Back to top | Ozzy Tabs for Gets Me Through. Lyrics for acoustic guitar and electric guitar. Tablatures and chords are parodies/interpretations of the original songs. You may use it for private study, scholarship, research or language learning purposes only