» » »

Ozzy, Dee Tabs (ver.1)

Artists:  A B C D E F G H I J K L M N O P Q R S T U V W X Y Z # 

Dee Tabs (ver.1)

Ozzy Tabs
 Rating:
4/5 (4 votes)
Dee lessons Tabs too difficult? Try these video lessons and learn fast
                harmonic                  slide
-------------------x7x---7---7---10---10--------------12-11-12----------------
---12-----12--10---x7x-----7--7-----8---8-----------10------------------------
---------12--------x7x----7-7------7-7------------9---------------------------
--------12----9----x7x---9-------9----------9->11-----------------------------
---10--10---------------------------------------------------------------------
 
-------------------3---3---2----------0---0-----0--------------0--------------
---12-----12--10-----2---------5--3-----0---------3-2-3--3---3--3-------------
---------12-------------------------------------------------2-2---------------
--------12---------2-------0-------------------------------0------------------
---10--10-----9----------------4--2-------------0-----------------------------
--------------------------------------3------------------2--------------------
 
   trill pulloff                                                 harmonic
---5=7=5<-0-----2---2------0---2---3---------3-2--2--0--0---------x12x--------
---7---------------0-0------------------0--------------3----2--3--x12x--------
------------------2--------------------0-0------------------------x12x--------
----------------1---------------------2---2-----------------------x12x--------
-----------------------2------------------------------------0-----------------
---------------------------3---2---0--------------4---------------------------
 
    <--- hammers  --->             trill                      trill       slide
----------------------------2--3--5=7=5-------0-----2--3--5--7=9=7------------
----------------------------3-------------3--3------3----------------2----3>>5
---4=2=0------------------------------------0--------------------------0------
----------4=2=0---------0>>>>--------------------0>>>>>>----------------------
----------------4=2=0---------------------2--------------------------0--------
      po        po   po  po             po   slide             slide
---5-->--3-3-2-2>0--2>0-----0-------0-----------------------------------------
------------------------3>0--------3---2>0--3>5---2---------------------------
----------------------------------------------------0--3-3--2-----------------
---0>>>>>>>>>-------4>>>>>>>---------------------------------0----------------
-----------------------------------2---0----------0-------------2>0-----------
---------------------------------------------------------2--------------------
 
     slide      slide   harmonic
---7-->--5---5-->--3----x7x---------------------------------------------------
---8--------------------x7x---------------------------------------------------
------------------------x7x---------------------------------------------------
------------------------x7x---------------------------------------------------
-------------4----------------------------------------------------------------
---0->>>>>--------------------------------------------------------------------
            
Submit corrections

comments powered by Disqus
↑ Back to top | Ozzy Tabs for Dee. Lyrics for acoustic guitar and electric guitar. Tablatures and chords are parodies/interpretations of the original songs. You may use it for private study, scholarship, research or language learning purposes only