>
 >
Crazy Babies

Crazy Babies Guitar Tabs

Ozzy - Crazy Babies chords, tabs, tablatures, lyrics

Guitar lessons | Add/correct | Request | Top 50 tabs Artists:  A B C D E F G H I J K L M N O P Q R S T U V W X Y Z 0-9

Crazy Babies Guitar Tabs – Ozzy

CD, Sheet music, Poster

Do you like Crazy Babies? Share with your friends now
Tabs
Ozzy - Crazy Babies

Tune down 1/2 step: Eb Ab Db Gb Bb Eb

1,2,3===================================||4===================================|
|--------------------|-------------------|-------------3-------|--------------|
|--------------------|-------------------|-------------3-2/4\2-|--------------|
|--------------------|-------------------|---------------2/4\2-|--------------|
|-----------------2--|-----------2-----2-|---------------------|-----2------2-|
|-2----2-2-2------0--|-2-----2---0-PH--0-|-2----2-2-2----------|-2---0-PH---0-|
|-0----0-0-0--0-3----|-0-----0-3---3^----|-0----0-0-0----------|-0-3---3^-----|

Verse: "theyd better come down soon or everyone will know just why"
|------------------------|-----------------------|--------
|----------3-------------|--3---------------3----|-9~~~---
|----------2-------2-----|--2--------2------2----|-9------
|-2--------0-------2-----|--0--------2------0----|-9------
|-2----------------0-----|-------0-0-0-----------|--------
|-0----------------------|-----------------------|--------

----------------------------------|---------------3-------|
----------------------------------|-9~~~----------3-2/4\2-|
then play 1st fig. - 2nd half
----------------------------------|-9---------------2/4\2-|
-----------------------2--------2-|-9---------------------|
PM..................---0-PH-----0-|-----------------------|
-0-0-0-0-0-0-0-0-0-0-3---3^--0----|------0--0--0----------|

"Nobodys gonna tame them...they're never gonna stop..."
|-----------------|-------------------|------3------------|
|-9~~-------------|-------------------|------3----3-------|
|-9---------------|-------------------|------0----2-------|
|-9---------------|-----------2-----2-|-2----0----0-------|
|-----------------|-----------0-PH--0-|-2-----------------|
|-----0-0-0-0-0-0-|-0-0-0-0-3---3^----|-0----3------------|
                                     "Walk that walk"
|---------------|-------------/15~~~-|--------------------|
|---------------|-------------/14----|-------------3------|
|-2-2-2-2-2-2-2-|-7---5---2---/14----|-7--5--2-----0------|
|-2-2-2-2-2-2-2-|-7---5---2----------|-7--5--2-----0------|
|-0-0-0-0-0-0-0-|-5---3---0----------|-5--3--0------------|
|---------------|--------------------|---------3-3-3------|
                   "Talk that talk"
|----------/15~~--|---------------|
|----------/14----|-------------3-|
|-7--5--2--/14----|-7--5--2-----0-|
|-7--5--2---------|-7--5--2-----0-|
|-5--3--0---------|-5--3--0-------|
|-----------------|---------3-3-3-|

Interlude:
|-------------------release---------------------|
|--------------15^----^----^--------------------|
|-4------------------------------12h14p12-------|
|-4----------------------------------------14---|
|-2-----PH--------------------------------------|
|-------3~~~------------------------------------|

|---------------|--------------|-10--10--10---|10-10-10---|
|-------------7-|--/9----------|---10--10--10-|--9--9--9--|
|-------------7-|--/9----------|--------------|-----------|
|----9-9-7--5-7-|--/9----------|--------------|-----------|
|---------------|--------------|--------------|-----------|
|---------------|--------------|--------------|-----------|

|-9---9---9---|-x\-------|---------------------------|
|---8---8---8-|-x\\-PS---|-9-\-7-7~~~~~~~~~~~~~~~~~--|
|-------------|---\\-----|-9-\-7-7-------------------|
|-------------|----\\----|-9-\-7-7-------------------|
|-------------|-----\\---|-7-\-5-5-------------------|
|-------------|------\\--|---------------------------|

|----------------0--|-------------------------------------|
|----------------0--|----------9-\-7-7~~~~~~~~~~~~~~~~~~--|
|-----2--------4-4--|----------9-\-7-7--------------------|
|-----2--------2----|----------9-\-7-7--------------------|
|-----0----2--------|----------7-\-5-5--------------------|
|-3-3---3^-0--------|-------------------------------------|

Solo:
|--------------------------|------------------------------|
|--------------------------|-----9---12--10--7------------|
|-7-7-7-7----7-7-7-7-------|-9-----------------7~~7~~~~~--|
|---------9----------9~~~~-|---9---9---9---9--------------|
|-------------------PH-----|------------------------------|
|--------------------------|------------------------------|

|-----------------------------|-tap-----------------|
|-----------------------------|---------------PH----|
|-7-7-7-7----7-7-7-7---11p9p7-|-21^^^^^^(9)-7-9~~~--|
|---------9----------9--------|---------------------|
|-----------------------------|---------------------|
|-----------------------------|---------------------|

|-------------------------------------|--------------------------15^-|
|---10^-10--12^-12-10-15^--15-12--15^-|-15-12---15^-15-12--15^-x-----|
|---------9---------------------14----|------14----------14----------|
|-------------------------------------|------------------------------|
|-------------------------------------|------------------------------|
|-------------------------------------|------------------------------|

|--14-13-12-15^--14-|-13-12----------------|
|-------------------|-------14^--12~~~~----|
|-------------------|--------------------8-|
|-------------------|----------------------|
|-------------------|----------------------|
|-------------------|----------------------|

|-10p7-------10p7-------10p7-------10p7--------|
|-----10p7-------10p7-------10p7-------10p7----|
|---------9p7--------9p7--------9p7--------9p7-|
|----------------------------------------------|
|----------------------------------------------|
|----------------------------------------------|

|-10p7-------10p7--------------|--------------------------------------|
|-----10p7-------10p7----------|--------------------------------------|
|---------9p7--------9p7-9~~~~-|-------------------------------797979-|
|------------------------------|-797979-911911911-111211121112--------|
|------------------------------|--------------------------------------|
|------------------------------|--------------------------------------|

|----------------------|-------------------|--------------|
|----------------------|-Pinch Harm.-------|--P.H.--------|
|-11911911-12^--12~~~~-|-------------------|--------------|
|----------------------|-------------------|--------5-----|
|----------------------|-5-----5-----7-----|----7---------|
|----------------------|----7-----5-----4--|-7------------|

|---------------------------|----------------x\-----------|
|------------PH------PH-----|----------------x\\----------|
|-----------(1/2)-----------|------------------\\---------|
|--full--------------full---|-------------------\\--------|
|--7^--------7^------5^-----|-2h5p2h5p2h5p2------\\-------|
|---------------------------|---------------------\\------|


This is not my work, it is a friend's work, so it might be
wrong, kay?
Enjoy!





Comments


Popular Ozzy tabs & chords
Dee Tabs
Goodbye To Romance Tabs
Iron Man 2 Tabs
Iron Man Randy Rhoads Version Tabs
Mama Im Comin Home Tabs
Miracle Man Tabs
Ozzyosbourne-Crazytrain Tabs
Shot In The Dark Tabs
Shot In The Dark 1 Tabs
Suicide Solution Tabs


Song lyrics



↑ Back to top | Tablatures and chords are parodies/interpretations of the original songs. You may use it for private study, scholarship, research or language learning purposes only
© 2014 AZChords.com Contact us | Privacy policy | DMCA | Add/correct tabs | Request tabs | Top 50 tabs