» » »

Weild The Spade Bass tabs (ver.1)

Artists:  A B C D E F G H I J K L M N O P Q R S T U V W X Y Z # 

Weild The Spade Bass tabs (ver.1)

Oysterhead
Rating:
0/5 (0 votes)

Hard to play? Try these video lessons and learn fast.
                Oysterhead

G|-----/9--7-----/7--5-|----/9--7-----------|G
D|*-5---------5--------|-5---------/7--/7\-*|D
A|*--------------------|-------------------*|A
E|---------------------|--------------------|E

G|-----/9--7-----/7--5-|----/9--7-----------|G
D|*-5---------5--------|-5---------/7--/7\-*|D
A|*--------------------|-------------------*|A
E|---------------------|--------------------|E


And so on.
Les uses alot of variations, 
so just mess around with it and have some fun.
            
Hard to play? Try these video lessons and learn fast. | Correct




comments powered by Disqus
↑ Back to top | Tablatures and chords are parodies/interpretations of the original songs. You may use it for private study, scholarship, research or language learning purposes only