» » »

Shadow Of Man Bass tabs (ver.2)

Artists:  A B C D E F G H I J K L M N O P Q R S T U V W X Y Z # 

Shadow Of Man Bass tabs (ver.2)

Oysterhead
Rating:
0/5 (0 votes)

Hard to play? Try these video lessons and learn fast.
                Artist- Oysterhead
Album- The Grand Pecking Order
Song- Shadow of a Man

You'll need a delay pedal for this song.

n natural harmonic
g ghost note
x muted note
 slide down
^ bend note

Intro
G|-9------|------------|-9------|------------||
D|------7-|------------|------7-|------------|| x2
A|--------|-8^-------0-|--------|-8^-------0-||
E|--------|------------|--------|------------||
   n    n            g   n    n            g

Pre-Verse
G|-11----x-x-x-14-|-11----x-x-x-14-|-10----x-x-x-14-|-11----x-x-x-14-||
D|----------------|----------------|----------------|----------------|| x2
A|-8--------------|----------------|----------------|----------------||
E|----------------|----------------|----------------|----------------||

Verse
G-11-11-11-11-11-11-11-11|-10-10-10-10-10-10-10-10|-11-11-11-11-11-11-11-11-|
D|-----------------------|------------------------|-------------------------|
A|-----------------------|------------------------|-------------------------|
E|-----------------------|------------------------|-------------------------|


Chorus 2x
G|-------|--------|-------|------14-||
D|-7-----|------9-|-7-----|---------||
A|-----7-|-10-----|-----7-|-10------||
E|-------|--------|-------|---------||

Pre-Verse
G|-11----x-x-x-14-|-11----x-x-x-14-|-10----x-x-x-14-|-11----x-x-x-14-||
D|----------------|----------------|----------------|----------------|| x2
A|----------------|----------------|----------------|----------------||
E|----------------|----------------|----------------|----------------||

Verse 4x
G-11-11-11-11-11-11-11-11|-10-10-10-10-10-10-10-10|-11-11-11-11-11-11-11-11-|
D|-----------------------|------------------------|-------------------------|
A|-----------------------|------------------------|-------------------------|
E|-----------------------|------------------------|-------------------------|


Chorus  2x
G|-------|--------|-------|----||
D|-7-----|------9-|-7-----|----||
A|-----7-|-10-----|-----7-|-10-||
E|-------|--------|-------|----||

Bridge
G|-11--x-x-x-14-|-11--x-x-x-14-|-10---x-x-x-14-|-11---x-11-12-12-12-11-14-||
D|--------------|--------------|---------------|--------------------------||
A|--------------|--------------|---------------|--------------------------||
E|--------------|--------------|---------------|--------------------------||

G|-11----x-x-x-14-|-11----x-x-x-14-|-10----x-x-x-14-|-11----x-x-x-14-||
D|----------------|----------------|----------------|----------------||
A|----------------|----------------|----------------|----------------||
E|----------------|----------------|----------------|----------------||

Intro Revisited
G|-9------|------------|-9------|------------||
D|------7-|------------|------7-|------------||
A|--------|-8^-------0-|--------|-8^-------0-||
E|--------|------------|--------|------------||
   n    n            g   n    n            g

Bridge Returned
G|-11----x-x-x-14-|-11----x-x-x-14-|-10----x-x-x-14-|-11----x-x-x-14-||
D|----------------|----------------|----------------|----------------||
A|----------------|----------------|----------------|----------------||
E|----------------|----------------|----------------|----------------||

G|-11----x-x-x-14-|-11----x-x-x-14-|-10----x-x-x-14-|-11-----------||
D|----------------|----------------|----------------|-----98765432-||
A|----------------|----------------|----------------|-----98765432-||
E|----------------|----------------|----------------|--------------||

Outro
G|---------------|---------------|---------------|---------------||
D|---------------|---------------|---------------|---------------|| x3
A|-9----x-x-x-12-|-9----x-x-x-12-|-8----x-x-x-12-|-9----x-x-x-12-||
E|---------------|---------------|---------------|---------------||

G|-9------|------------|-9------|------------||
D|------7-|------------|------7-|------------|| x2
A|--------|-8^-------0-|--------|-8^-------0-||
E|--------|------------|--------|------------||
   n    n            g   n    n            g

G|-9-||
D|---||
A|---||
E|---||
   n
            
Hard to play? Try these video lessons and learn fast. | Correct




comments powered by Disqus
↑ Back to top | Tablatures and chords are parodies/interpretations of the original songs. You may use it for private study, scholarship, research or language learning purposes only