» » »

Pseudo Suicide Bass tabs (ver.1)

Artists:  A B C D E F G H I J K L M N O P Q R S T U V W X Y Z # 

Pseudo Suicide Bass tabs (ver.1)

Oysterhead
Rating:
0/5 (0 votes)

Hard to play? Try these video lessons and learn fast.
                Oysterhead
pseudo suicide

G|------------------------------------------------
D|---------------------0h2p0---0------------------
A|------------2--------------2---1----------------
E|----0---0--------------------------0--0--0------

G|------------------------------------------------
D|---------------------0h2p0---0------------------
A|------------2--------------2---1----------------
E|----0---0--------------------------0--0--2------
            
Hard to play? Try these video lessons and learn fast. | Correct




comments powered by Disqus
↑ Back to top | Tablatures and chords are parodies/interpretations of the original songs. You may use it for private study, scholarship, research or language learning purposes only