» » »

Polka Dot Rose Bass tabs (ver.1)

Artists:  A B C D E F G H I J K L M N O P Q R S T U V W X Y Z # 

Polka Dot Rose Bass tabs (ver.1)

Oysterhead
Rating:
0/5 (0 votes)

Hard to play? Try these video lessons and learn fast.
                claypool at bat, swing 
give les a call for the correct tunings 


intro 
                                  3x 
G|---(12)-12/18\------(12)-12/18\---|G 
D|*--------------------------------*|D 
A|*--------------------------------*|A 
E|----------------------------------|E 

                          3x 
G|--------------------------|G 
D|*--77-8-9----------------*|D 
A|*-------------0h3--0h3\--*|A 
E|--------------------------|E 

                          1x 
G|--------------------------|G 
D|*--77-8-9----------------*|D 
A|*-------------0/3/5\2\0--*|A 
E|--------------------------|E 



main 

G|---------------------------------|--0h5h6p5p0-----------------|G 
D|*--------------------------------|-------------2-------------*|D 
A|*----------1--2----------1--2/5--|----------------4---4-4-4--*|A 
E|---0h1--3--------0h1--2----------|----------------------------|E 
                         variations are a dime a dozen, have fun
            
Hard to play? Try these video lessons and learn fast. | Correct




comments powered by Disqus
↑ Back to top | Tablatures and chords are parodies/interpretations of the original songs. You may use it for private study, scholarship, research or language learning purposes only