» » »

Oz Is Everfloating Bass tabs (ver.2)

Artists:  A B C D E F G H I J K L M N O P Q R S T U V W X Y Z # 

Oz Is Everfloating Bass tabs (ver.2)

Oysterhead
Rating:
0/5 (0 votes)

Hard to play? Try these video lessons and learn fast.
                Oz Is Ever Floating-Oysterhead
The Grand Pecking Order
Bassist:Les Claypool


S = Slap
P = Pop
~ = Ring out
h = hammer-on
p = pull-off
|-3-| = triplet

ok this song isnt that bad once u get use to it but does take a lot of practice. Most 
of the slaps are on the A string and all the pops are on the G string. Les plays pretty 
the same thing the whole time but this is the whole song in the order he plays it.

Intro/Main riff
G|--------x----------x-----5-------------------------------------|
D|-------------------------3--3h5p3------------------------------|
A|5-3-5-x---x-5-3-5-x--------------------------------------------|
E|---------------------------------------------------------------|
  S S S S P S S S S SP     V

G|---------------------------------------------------------------|
D|------3-------5------------------------------------------------|
A|5-3-5---7-5-7--------------------------------------------------|
E|---------------------------------------------------------------|
  S S S S S S S S
G|---------------------------------------------------------------|
D|-----3-------5-------------------------------------------------|
A|-5-3---5-7-5---7-----------------------------------------------|
E|---------------------------------------------------------------|
   S S S S S S S S

G|---------------------------------------------------------------|
D|-------3---------5---------------------------------------------|
A|-3h5-3---5-3h5-3---3-------------------------------------------|
E|---------------------------------------------------------------|
   S   S S S S   S S S
G|---------------------------------------------------------------|
D|----------------3~~-------2~~----------------------------------|
A|---5~~-----3~~-------------------------------------------------|
E|---------------------------------------------------------------|
    |-3-|
G|-5-333---2-----------------------------------------------------|
D|-------3---3---------------------------------------------------|
A|---------------------------------------------------------------|
E|---------------------------------------------------------------|
            
Hard to play? Try these video lessons and learn fast. | Correct




comments powered by Disqus
↑ Back to top | Tablatures and chords are parodies/interpretations of the original songs. You may use it for private study, scholarship, research or language learning purposes only