» » »

Oysterhead, Owner Of The World Bass tabs (ver.1)

Artists:  A B C D E F G H I J K L M N O P Q R S T U V W X Y Z # 

Owner Of The World Bass tabs (ver.1)

Oysterhead Tabs
 Rating:
4/5 (4 votes)
Owner Of The World lessons Tabs too difficult? Try these video lessons and learn fast
                Tuning: D-A-D-G


Intro:
G-------12-12-10-10----1012-|-------12-12---1012------10H12-|
D--------------------12-----|-------------12-----10H12------|
A-10-10---------------------|-10-10-------------------------|
D---------------------------|-------------------------------|

G-------12-12-10-10----1012-|----12-10------10------12-|
D--------------------12-----|----------10H12---10H12---|
A-10-10---------------------|-10-----------------------|
D---------------------------|--------------------------|

Verse:
"He used to own the world.."
G-------12-12-10-10-------|-------12-12-10-10--------|
D-------------------12-12-|-------------------12-12-|
A-10-10-------------------|-10-10--------------------|
D-------------------------|--------------------------|

G----------------|-----------------|--------------------12-12----|
D-1-1----------1-|-----------------|-----------------12-------12-|
A-----1-1----1---|-x-x-x-x-x-10---|----------/10-10-------------|
D----------1-----|---------------0-|-x-x-x-x-/-------------------|

G----------12-12p10-|---------------|--------5-----|
D-------12----------|-12-0-0--------|------5-------|
A----10-------------|-----------0-0-|-/3-3---------|
D-------------------|---------0-----|--------------|

Chorus:
"He used to be the owner of the world"
G-----------------|-----------------|-----------------|
D-----------------|-----------------|-----------------|
A-----------------|-1-1-1-1-1-1-1-1-|-3-3-3-3-3-3-3-3-|
D-5-5-5-5-5-5-5-5-|-----------------|-----------------|

G-----------------|-----------------|-----------------|
D-1-1-1-1-1-1-1-1-|-----------------|-----------------|
A-----------------|-----------------|-1-1-1-1-1-1-1-1-|
D-----------------|-5-5-5-5-5-5-5-5-|-----------------|

G-3---------------|-3-3-3-3-2-2-2-2-|
D-----------------|-----------------|
A-----------------|-----------------|
D-----------------|-----------------|

Guitar Solo: "...World"
G------------------------|--------------------|
D---------5-5-3-3---3H5--|-----5-5-----3----5-|
A-----------------5------|----------3H5--3H5--|
D------------------------|-5-5----------------|

G-----------------|---------------|
D-----5-5-3-3---3-|-5------x------|
A-------------5---|---------------|
D-5-5-------------|------------5/-|
            
Submit corrections

comments powered by Disqus
↑ Back to top | Oysterhead Bass for Owner Of The World. Lyrics for acoustic guitar and electric guitar. Tablatures and chords are parodies/interpretations of the original songs. You may use it for private study, scholarship, research or language learning purposes only