>
 >
Think Against The Grain

Think Against The Grain Guitar Tabs

Over It - Think Against The Grain chords, tabs, tablatures, lyrics

Guitar lessons | Add/correct | Request | Top 50 tabs Artists:  A B C D E F G H I J K L M N O P Q R S T U V W X Y Z 0-9

Think Against The Grain Guitar Tabs – Over It

CD, Sheet music, Poster

Do you like Think Against The Grain? Share with your friends now
Tabs
Intro part 1:

guitar 1

e|--6-------4--------2--------4----------------------------------------------|
B|--7-------6--------4--------6----------------------------------------------|
G|--8-------6--------4--------6----------------------------------------------|
D|--8-------6--------4--------6----------------------------------------------|
A|--6(x8)---4(x4)----2(X8)----4(x4)------------------------------------------|
E|---------------------------------------------------------------------------|

guitar 2

e|---------------------------------------------------------------------------|
B|--7--7-6--2---2-2--4-4-----------------------------------------------------|
G|---------------------------------------------------------------------------|
D|---------------------------------------------------------------------------|
A|---------------------------------------------------------------------------|
E|---------------------------------------------------------------------------|

Intro Part 2:

guitar 1

e|-------------------------------------------------------|
B|-------------------------------------------------------|
G|--8-------6--------4--------6--------------------------|
D|--8-------6--------4--------6--------------------------|
A|--6(x8)---4(x4)----2(X8)----4(x4)----------------------|
E|-------------------------------------------------------|


guitar 2

e|--------------------------------------------------------9------------------|
B|--2--4-4-4-4-4-4--4/11--11-9-7--6-6-7-7-7-7--7-6h7-7-6------7-6---2--------|
G|---------------------------------------------------------------------------|
D|---------------------------------------------------------------------------|
A|---------------------------------------------------------------------------|
E|---------------------------------------------------------------------------|



e|----------------------------------------------4----------------------------|
B|--2--4-4-4-4-4-4--4/11--11-9-7--6-6-7-7-7-7------7-6-4--7-6-4--2-2-4v------|
G|---------------------------------------------------------------------------|
D|---------------------------------------------------------------------------|
A|---------------------------------------------------------------------------|
E|---------------------------------------------------------------------------|


Verse:

Play softly:

e|-------------------------------------------------------|
B|-------------------------------------------------------|
G|-------------------------------------------------------|
D|--8-------6--------4--------6--------------------------|
A|--6(x8)---4(x4)----2(X8)----4(x4)----------------------|
E|-------------------------------------------------------|




Pre chorus:

e|-----------------------|
B|-----------------------|
G|-----------------------|
D|---4--3----------------|
A|---2--1----------------|
E|-----------------------|


Chorus part 1:


e|-------------------------------------------------------|
B|-------------------------------------------------------|
G|--8-------6--------4--------6--------------------------|
D|--8-------6--------4--------6--------------------------|
A|--6(x8)---4(x4)----2(X8)----4(x4)----------------------|
E|-------------------------------------------------------|



Chorus part 2:

Guitar 1

e|----------------------------------------------------------------------------------|
B|----------------------------------------------------------------------------------|
G|----------------------------------------------------------------------------------|
D|-----------------------------------------------------------11---9-11---4--3-------|
A|---6-6---6-4-------------------13-13--11-13--13--11-13-----11----------4--3-------|
E|---4-4--------7--4---4/11-9-7--11-11--9--11--11--9--11-----9-----------2--1-------|

Guitar 2

e|-----------6-4----------6--4---------6-4-----6-6--9--6-4-6-----------------|
B|--------4-------7---4---------7---4-------7--------------------------------|
G|---------------------------------------------------------------------------|
D|---------------------------------------------------------------------------|
A|---------------------------------------------------------------------------|
E|---------------------------------------------------------------------------|


e|---------------------------------------------------------------------------|
B|---------------------------------------------------------------------------|
G|-8-8-----------8-8-8-------------------------------------------------------|
D|-x-x-----------x-x-x-------------------------------------------------------|
A|-6-6---8-9-----6-6-6---8-9-9--8v-------------------------------------------|
E|---------------------------------------------------------------------------|




2nd pre chorus:

e|---------------------------------------------------------------------------|
B|---------------------------------------------------------------------------|
G|---------------------------------------------------------------------------|
D|---8------------------------------4------6-------4--3----------------------|
A|---6(x8)-----9-8-9-8-9-8-9-8-9----2(x8)--4(x4)---2--1----------------------|
E|---------------------------------------------------------------------------|



Bridge:

e|---------------------------------------------------------------------------|
B|---------------------------------------------------------------------------|
G|--4------6----------------------8-8-----------8-8-8------------------------|
D|--4------6----------------------x-x-----------x-x-x------------------------|
A|--2(x8)--4(x8)------------------6-6---8-9-----6-6-6---8-9-9--8\------------|
E|---------------------------------------------------------------------------|


e|---------------------------------------5------------------------------------|
B|---------------------------------------6------------------------------------|
G|---------------------------------------8------------------------------------|
D|---------------------------------------8------------------------------------|
A|----8-9------8-9-------8-9-------------6(x10)-------------------------------|
E|--6-----6-7------7--8-------8--9--------------------------------------------|





Comments


Popular Over It tabs & chords
Siren On The 101 Bass Tabs
Ashland Tabs
B-54 Tabs
Gunslinger Tabs
Mister Serious Tabs
Skipping Stones Tabs
Tenth Grade Tabs
Thats Life Tabs


Song lyrics



↑ Back to top | Tablatures and chords are parodies/interpretations of the original songs. You may use it for private study, scholarship, research or language learning purposes only
© 2014 AZChords.com Contact us | Privacy policy | DMCA | Add/correct tabs | Request tabs | Top 50 tabs