>
 >
Thats Life

Thats Life Guitar Tabs

Over It - Thats Life chords, tabs, tablatures, lyrics

Guitar lessons | Add/correct | Request | Top 50 tabs Artists:  A B C D E F G H I J K L M N O P Q R S T U V W X Y Z 0-9

Thats Life Guitar Tabs – Over It

CD, Sheet music, Poster

Do you like Thats Life? Share with your friends now
Tabs
			THAT'S LIFE - Over It


~ - let ring
PM - palm mute

Intro 1:  Guitar 1  (3x)
e|---------------------------------------------------------------------------|
B|---------------------------------------------------------------------------|
G|6-6-------6-6-------6-6-------8-8-8-8-8--6-6-------6-6-------6-6-----------|
D|6-6-6-4-4-6-6-6-4-4-6-6-6-4-4-x-x-x-x-x--6-6-6-4-4-6-6-6-4-4-6-6-6-4-4-----|
A|4-4-6-4-4-4-4-6-4-4-4-4-6-4-4-6-6-6-6-6--4-4-6-4-4-4-4-6-4-4-4-4-6-4-4-----|
E|----4-2-2-----4-2-2-----4-2-2----------------4-2-2-----4-2-2-----4-2-2-----|

Intro 1 Cont'd:  Guitar 1                   End On:
e|----------------------------------------|----------------------------------|
B|----------------------------------------|----------------------------------|
G|10-10-10-8-8----------------------------|------6~--------------------------|
D|-x--x--x-x-x----------------------------|------x~--------------------------|
A|-8--8--8-6-6----------------------------|------4~--------------------------|
E|----------------------------------------|----------------------------------|

Intro 1:  Guitar 2  (Do it when Guitar 1 starts 2nd time)
e|---------|
B|---------|
G|---6~----|
D|---6~----|
A|---4~----|
E|---------|

Intro 1 Cont'd:  Guitar 2  (Start when Guitar 1 starts it's 3rd time)  (4x)
e|-------------------------------------------------|  End On:
B|-------------------------------------------------|-------------------------|
G|6-6-6-6------------------------------------------|-------6~----------------|
D|6-6-6-6-6-4-4-4-4-4-6-8-8-8-8-8-6-6-6-6-6-6-6-6--|-------6~----------------|
A|4-4-4-4-6-4-4-4-4-4-6-8-8-8-8-8-6-6-6-6-6-6-6-6--|-------4~----------------|
E|--------4-2-2-2-2-2-4-6-6-6-6-6-4-4-4-4-4-4-4-4--|-------------------------|

Intro 2:  Guitar 1  (2x)  Start with Pickslide
e|---------------------------------------------------------------------------|
B|---------------------------------------------------------------------------|
G|6-6-6-6-6-6-6-6-6-6-6-6----------------------------------------------------|
D|6-6-6-6-6-6-6-6-6-6-6-6-4-4-4-4-4-4-4-4-4-4-4-4-8-8-8-8-8-6-6-6-6-6-4-4-4-4|
A|4-4-4-4-4-4-4-4-4-4-4-4-4-4-4-4-4-4-4-4-4-4-4-4-8-8-8-8-8-6-6-6-6-6-4-4-4-4|
E|------------------------2-2-2-2-2-2-2-2-2-2-2-2-6-6-6-6-6-4-4-4-4-4-2-2-2-2|

Intro 2 Cont'd:  Guitar 1  
e|---------------------------------------------------------------------------|
B|---------------------------------------------------------------------------|
G|---------------------------------------------------------------------------|
D|4-4-4-4-4-4-4-4------------------------------------------------------------|
A|4-4-4-4-4-4-4-4------------------------------------------------------------|
E|2-2-2-2-2-2-2-2------------------------------------------------------------|

Intro 2:  Guitar 2  (2x)  Start with Pickslide
e|---------------------------------------------------------------------------|
B|---------------------------------------------------------------------------|
G|10-10-10-10-10-10-10-10-10-10-10-10-13-13-13-13-13x-13-13-13-13-13-13------|
D|-x--x--x--x--x--x--x--x--x--x--x--x--x--x--x--x--xx--x--x--x--x--x--x------|
A|-8--8--8--8--8--8--8--8--8--8--8--8-11-11-11-11-11x-11-11-11-11-11-11------|
E|---------------------------------------------------------------------------|

Intro 2 Cont'd:  Guitar 2
e|---------------------------------------------------------------------------|
B|---------------------------------------------------------------------------|
G|10-10-10-10-10-8-8-8-8-8-6-6-6-6-6-8-8-8-10-8------------------------------|
D|-x--x--x--x--x-x-x-x-x-x-x-x-x-x-x-x-x-x--x-x------------------------------|
A|-8--8--8--8--8-6-6-6-6-6-4-4-4-4-4-6-6-6--8-6------------------------------|
E|---------------------------------------------------------------------------|

End of Intro 2:  Guitar 1  (Palm Mute)
e|---------------------------------------------------------------------------|
B|---------------------------------------------------------------------------|
G|6-6-6-6-6-6-6-6------------------------------------------------------------|
D|6-6-6-6-6-6-6-6-6-4-4-4-4-4-4-4--------------------------------------------|
A|4-4-4-4-4-4-4-4-6-4-4-4-4-4-4-4--------------------------------------------|
E|----------------4-2-2-2-2-2-2-2--------------------------------------------|

End of Intro 2:  Guitar 2
e|---------|
B|---------|
G|---6~----|
D|---x~----|
A|---4~----|
E|---------|

Verse:  Guitar 1 Repeats Guitar 1's Intro 2 (4x)

Verse:  Guitar 2 Repeats Guitar 1's Intro 2 (2x)

Verse Cont'd:  Guitar 2
e|---------------------------------------------------------------------------|
B|---------------------------------------------------------------------------|
G|6-6-6-6-6-6-6-6-6-6-6-6-------------------------8-8-8-8-8-10-10-10-10-10---|
D|6-6-6-6-6-6-6-6-6-6-6-6-4-4-4-4-4-4-4-4-4-4-4-4-x-x-x-x-x--x--x--x--x--x---|
A|4-4-4-4-4-4-4-4-4-4-4-4-4-4-4-4-4-4-4-4-4-4-4-4-6-6-6-6-6--8--8--8--8--8---|
E|------------------------2-2-2-2-2-2-2-2-2-2-2-2----------------------------|

Verse Cont'd:  Guitar 2
e|---------------------------------------------------------------------------|
B|---------------------------------------------------------------------------|
G|11-11-11-11-11-11-10-8-6-6-6-6-6-6-6-6-6-6-6-6-----------------------------|
D|-x--x--x--x--x--x--x-x-6-6-6-6-6-6-6-6-6-6-6-6-4-4-4-4-4-4-4-4-4-4-4-4-----|
A|-9--9--9--9--9--9--8-6-4-4-4-4-4-4-4-4-4-4-4-4-4-4-4-4-4-4-4-4-4-4-4-4-----|
E|-----------------------------------------------2-2-2-2-2-2-2-2-2-2-2-2-----|

Verse Cont'd:  Guitar 2
e|---------------------------------------------------------------------------|
B|---------------------------------------------------------------------------|
G|8-8-8-8-8-10-10-10-10-10-6-6-6-6-6-6-6-6-6-6-------------------------------|
D|x-x-x-x-x--x--x--x--x--x-x-x-x-x-x-x-x-x-x-x-------------------------------|
A|6-6-6-6-6--8--8--8--8--8-4-4-4-4-4-4-4-4-4-4-------------------------------|
E|---------------------------------------------------------------------------|

Chorus:  Guitar 1
e|---------------------------------------------------------------------------|
B|---------------------------------------------------------------------------|
G|3-3-3-3-3-3-3-3-3-3---------------------6-6-6-6-6-6-6-6-6-6----------------|
D|3-3-3-3-3-3-3-3-3-3-4-4-4-4-4-4-4-4-4-4-6-6-6-6-6-6-6-6-6-6-4-4-4-4-4-4-4-4|
A|1-1-1-1-1-1-1-1-1-1-4-4-4-4-4-4-4-4-4-4-4-4-4-4-4-4-4-4-4-4-4-4-4-4-4-4-4-4|
E|--------------------2-2-2-2-2-2-2-2-2-2---------------------2-2-2-2-2-2-2-2|

Chorus Cont'd:  Guitar 1
e|---------------------------------------------------------------------------|
B|---------------------------------------------------------------------------|
G|----3-3-3-3-3-3-3-3-3-3---------------------6-6-6-6-6-6-3-3-3-3-3-3--------|
D|4-4-3-3-3-3-3-3-3-3-3-3-4-4-4-4-4-4-4-4-4-4-6-6-6-6-6-6-3-3-3-3-3-3-4~-----|
A|4-4-1-1-1-1-1-1-1-1-1-1-4-4-4-4-4-4-4-4-4-4-4-4-4-4-4-4-1-1-1-1-1-1-4~-----|
E|2-2---------------------2-2-2-2-2-2-2-2-2-2-------------------------2~-----|
                                              PM~~~~~~~   PM~~~~~~~

Chorus:  Guitar 2
e|---------------------------------------------------------------------------|
B|---------------------------------------------------------------------------|
G|3-3-3-3-3-3-3-3-3-3---------------------6-6-6-6-6-6-6-6-6-6-11-11-11-12-11-|
D|3-3-3-3-3-3-3-3-3-3-4-4-4-4-4-4-4-4-4-4-6-6-6-6-6-6-6-6-6-6--x--x--x--x--x-|
A|1-1-1-1-1-1-1-1-1-1-4-4-4-4-4-4-4-4-4-4-4-4-4-4-4-4-4-4-4-4--9--9--9-10--9-|
E|--------------------2-2-2-2-2-2-2-2-2-2------------------------------------|

Chorus Cont'd:  Guitar 2
e|---------------------------------------------------------------------------|
B|---------------------------------------------------------------------------|
G|3-3-3-3-3-3-3-3-3-3---------------------6-6-6-6-6-6-3-3-3-3-3-3------------|
D|3-3-3-3-3-3-3-3-3-3-4-4-4-4-4-4-4-4-4-4-6-6-6-6-6-6-3-3-3-3-3-3-4~---------|
A|1-1-1-1-1-1-1-1-1-1-4-4-4-4-4-4-4-4-4-4-4-4-4-4-4-4-1-1-1-1-1-1-4~---------|
E|--------------------2-2-2-2-2-2-2-2-2-2-------------------------2~---------|
                                          PM~~~~~~~   PM~~~~~~~
Repeat Verse

Repeat Chorus

Interlude:  Guitar 1  (Repeat a bunch of times)
e|---------------------------------------------------------------------------|
B|---------------------------------------------------------------------------|
G|---------------------------------------------------------------------------|
D|----6-----6-6-----4-----4-4-----3------3-3-----4-4-----4-4-----------------|
A|4-4---4-4-----2-2---2-2-----1-1----1-1-----2-2-----2-2---------------------|
E|---------------------------------------------------------------------------|
  PM~   PM~     PM~   PM~     PM~    PM~     PM~     PM~

Interlude:  Guitar 2
e|---------------------------------------------------------------------------|
B|---------------------------------------------------------------------------|
G|-6~--------------6~--------------------------------------------------------|
D|-6~--4~--8~--6~--6~--4~--8~--6~--------------------------------------------|
A|-4~--4~--8~--6~--4~--4~--8~--6~--------------------------------------------|
E|-----2~--6~--4~------2~--6~--4~--------------------------------------------|

Interlude Cont'd:  Guitar 2  (I can't make out the exact picking structure 
                              but these notes are used)
e|---------------------------------------------------------------------------|
B|--------4------------------------------------------------------------------|
G|--4--6---------------------------------------------------------------------|
D|---------------------------------------------------------------------------|
A|---------------------------------------------------------------------------|
E|---------------------------------------------------------------------------|

Interlude Cont'd:  Both Guitars  (Palm Mute)
e|---------------------------------------------------------------------------|
B|---------------------------------------------------------------------------|
G|6-6-6-6-6-6-6-6------------------------------------------------------------|
D|6-6-6-6-6-6-6-6------------------------------------------------------------|
A|4-4-4-4-4-4-4-4------------------------------------------------------------|
E|---------------------------------------------------------------------------|

Repeat Intro 2:  (2x)

End On:  Both Guitars
e|---------|
B|---------|
G|---6~----|
D|---6~----|
A|---4~----|
E|---------|

There it is.  I think it's almost 100% on except for the interlude.





Comments


Popular Over It tabs & chords
Siren On The 101 Bass Tabs
Ashland Tabs
B-54 Tabs
Gunslinger Tabs
Mister Serious Tabs
Skipping Stones Tabs
Tenth Grade Tabs
Think Against The Grain Tabs


Song lyrics



↑ Back to top | Tablatures and chords are parodies/interpretations of the original songs. You may use it for private study, scholarship, research or language learning purposes only
© 2014 AZChords.com Contact us | Privacy policy | DMCA | Add/correct tabs | Request tabs | Top 50 tabs