>
 >
Tenth Grade

Tenth Grade Guitar Tabs

Over It - Tenth Grade chords, tabs, tablatures, lyrics

Guitar lessons | Add/correct | Request | Top 50 tabs Artists:  A B C D E F G H I J K L M N O P Q R S T U V W X Y Z 0-9

Tenth Grade Guitar Tabs – Over It

CD, Sheet music, Poster

Do you like Tenth Grade? Share with your friends now
Tabs


PM - palm mute
~ - let ring out
/ - slide
7x
7x - mute after picking
5x

Bass Intro:
G|--------------------------------------------------------------------------|
D|--------------------------------------------------------------------------|
A|----5-----5---5-----7-----7---7-----9-----9-----9-----9-----9-------------|
E|3-3---3-3---3---5-5---5-5---5---7-7---7-7---7-7---7-7---7-7---------------|

GUITAR 1's PARTS:
Guitar 1  13 sec - 47 sec
e|--------------------------------------------------------------------------|
B|--------------------------------------------------------------------------|
G|--------------------------------------------------------------------------|
D|--5~------7~-----9--9-9-9-9-9-9-9-9-9-9-9---------------------------------|
A|--5~------7~-----9--9-9-9-9-9-9-9-9-9-9-9---------------------------------|
E|--3~------5~-----7--7-7-7-7-7-7-7-7-7-7-7---------------------------------|
                     PM  PM  PM  PM  PM

Guitar 1  48 sec - (Cont'd down)
e|--------------------------------------------------------------------------|
B|--------------------------------------------------------------------------|
G|7-777-7-777-7-7-777-7-777---------------------------4-444-4-444-4---------|
D|7-777-7-777-7-7-777-7-777-5-555-5-555-5-5-555-5-555-4-444-4-444-4---------|
A|5-555-5-555-5-5-555-5-555-5-555-5-555-5-5-555-5-555-2-222-2-222-2---------|
E|--------------------------3-333-3-333-3-3-333-3-333-----------------------|
    PM    PM      PM    PM    PM    PM      PM    PM    PM    PM

Guitar 1  -1.19 sec (Cont'd from above)
e|--------------------------------------------------------------------------|
B|--------------------------------------------------------------------------|
G|2-222-2-222-2-------------------------------------------------------------|
D|2-222-2-222-2-5-555-5-555-5-5-555-5-555-----------------------------------|
A|0-000-0-000-0-5-555-5-555-5-5-555-5-555-----------------------------------|
E|--------------3-333-3-333-3-3-333-3-333-----------------------------------|
    PM    PM      PM    PM      PM    PM

Guitar 1  1.20 sec - 1.24 sec
e|---------------------------|
B|---------------------------|
G|-4~--2~--5~----------------|
D|-4~--2~--5~----------------|
A|-2~--0~--3~----------------|
E|---------------------------|

Verse:  Guitar 1  1.25 sec - 1.43 sec  (strumming not correct)
e|--------------------------------------------------------------------------|
B|--------------------------------------------------------------------------|
G|7-7-7-7---------4-4-2-2-4-4-----------------------------------------------|
D|7-7-7-7-5-5-5-5-4-4-2-2-4-4-5-5-5-5---------------------------------------|
A|5-5-5-5-5-5-5-5-2-2-0-0-2-2-5-5-5-5---------------------------------------|
E|--------3-3-3-3-------------3-3-3-3---------------------------------------|

Chorus:  Guitar 1  1.44 sec - 1.49 sec  
e|--------------------------------------------------------------------------|
B|--------------------------------------------------------------------------|
G|4-444444-2-222222---------------------------------------------------------|
D|4-444444-2-222222-5-55555-5-55-5-55-5-5-----------------------------------|
A|2-222222-0-000000-5-55555-5-55-5-55-5-5-----------------------------------|
E|------------------3-33333-3-33-3-33-3-3-----------------------------------|
    PM....   PM....   PM...   PM   PM

Chorus Cont'd:  Guitar 1  1.50 sec - 2.00 sec 
e|--------------------------------------------------------------------------|
B|--------------------------------------------------------------------------|
G|4-444444-7-777777-----------------------4-444444-2-222222-----------------|
D|4-444444-7-777777-5-55555-5-55-5-55-5-5-4-444444-2-222222-5-55555-5-55-5--|
A|2-222222-5-555555-5-55555-5-55-5-55-5-5-2-222222-0-000000-5-55555-5-55-5--|
E|------------------3-33333-3-33-3-33-3-3-------------------3-33333-3-33-3--|
    PM....   PM....   PM...   PM   PM       PM....   PM....   PM...   PM

Chorus:  Guitar 1  2.01 sec - 2.05 sec
e|--------------------------------------------------------------------------|
B|--------------------------------------------------------------------------|
G|4-444444-7-777777---------------------------------------------------------|
D|4-444444-7-777777-5-5-5-5-5-5-5-------------------------------------------|
A|2-222222-5-555555-5-5-5-5-5-5-5-------------------------------------------|
E|------------------3-3-3-3-3-3-3-------------------------------------------|
    PM....   PM.... 

Bridge:  Guitar 1  2.06 sec - 2.24 sec
e|--------------------------------------------------------------------------|
B|--------------------------------------------------------------------------|
G|7-7-7-7-7-7-7-7-9-9---------------------4-4-4-4-4-4-2-2-2-4-4-4-----------|
D|7-7-7-7-7-7-7-7-9-9-5-5-5-5-5-5-5-5-5-5-4-4-4-4-4-4-2-2-2-4-4-4-5-5-5-5-5-|
A|5-5-5-5-5-5-5-5-7-7-5-5-5-5-5-5-5-5-5-5-2-2-2-2-2-2-0-0-0-2-2-2-5-5-5-5-5-|
E|--------------------3-3-3-3-3-3-3-3-3-3-------------------------3-3-3-3-3-|

Guitar 1:  Repeat Verse

Guitar 1:  Repeat Chorus

Guitar 1:  Repeat Bridge

Guitar 1  3.22 sec - 3.53 sec (Not all Palm mutes and stuff are tabbed out)
e|--------------------------------------------------------------------------|
B|--------------------------------------------------------------------------|
G|7-7-7-7---------4-4-2-2---------------------------------------------------|
D|7-7-7-7-5-5-5-5-4-4-2-2-5-5-5-5-------------------------------------------|
A|5-5-5-5-5-5-5-5-2-2-0-0-5-5-5-5-------------------------------------------|
E|--------3-3-3-3---------3-3-3-3-------------------------------------------|

Guitar 1  3.54 sec - 4.01 sec
e|--------------------------------------------------------------------------|
B|--------------------------------------------------------------------------|
G|7-7-7-7-7-7---7-7-7-7-7-7-7-7---------------------------------------------|
D|7-7-7-7-7-7---7-7-7-7-7-7-7-7--5-5-5-5-5-5-5-5/9-9-9-9-5-5-5-5------------|
A|5-5-5-5-5-5---5-5-5-5-5-5-5-5--5-5-5-5-5-5-5-5/9-9-9-9-5-5-5-5------------|
E|-------------------------------3-3-3-3-3-3-3-3/7-7-7-7-3-3-3-3------------|
Guitar 1  4.02 sec - end
e|--------------|
B|--------------|
G|---7~---------|
D|---7~---------|
A|---5~---------|
E|--------------|

GUITAR 2's PARTS:
Guitar 2  13 sec - 23 sec  (Harmonics) 
(just keep going back and forth between them)
e|--------|
B|--------|
G|-7------|
D|---7----|
A|--------|
E|--------|

Guitar 2  34 sec - 47 sec
e|--------------------------------------------------------------------------|
B|--------------------------------------------------------------------------|
G|11~--9~--12~--7~--11~--9~--12~--7~--7~--9~--6~--7x------------------------|
D|-x---x----x---x----x---x----x---x---x---x---x---xx------------------------|
A|-9~--7~--10~--5~---9~--7~--10~--5~--5~--7~--4~--5x------------------------|
E|--------------------------------------------------------------------------|

Guitar 2  58 sec - 1.08 sec   Guitar 2  1.09 sec - 1.17 sec
e|--------|                   e|-----------------------|
B|--------|                   B|-----------------------|
G|-7------|                   G|-7---5-----------------|
D|---7----|                   D|---7---5---------------|
A|--------|                   A|---------5-------------|
E|--------|                   E|-----------------------|
 Harmonics                      Harmonics

Guitar 2  1.19 sec - 1.24 sec
e|-----------------------|
B|-----------------------|
G|11~--9~--12~-11~-------|
D|-x---x----x---x--------|
A|-9~--7~--10~--9~-------|
E|-----------------------|

Guitar 2  1.33 sec - 1.34 sec
e|---------------------|
B|---------------------|
G|12-12-11-9-----------|
D|-x--x--x-x-----------|
A|10-10--9-7-----------|
E|---------------------|

Guitar 2  1.47 sec - 1.49 sec
e|-----------------------|
B|-----------------------|
G|12-12-12-12-12-12------|
D|-x--x--x--x--x--x------|
A|10-10-10-10-10-10------|
E|-----------------------|

Guitar 2  1.59 sec - 2.00 sec
e|----------------------|
B|----------------------|
G|12-12-12-11-11--------|
D|-x--x--x--x--x--------|
A|10-10-10--9--9--------|
E|----------------------|

Guitar 2  2.04 sec
e|---------|
B|---------|
G|11-12----|
D|-x--x----|
A|-9-10----|
E|---------|

Bridge:  Guitar 2  2.12 sec - 2.19 sec
e|--------------------------------------------------------------------------|
B|--------------------------------------------------------------------------|
G|11-11-11-9-9-9-12-12-12-7-7-7---------------------------------------------|
D|-x--x--x-x-x-x--x--x--x-x-x-x---------------------------------------------|
A|-9--9--9-7-7-7-10-10-10-5-5-5---------------------------------------------|
E|--------------------------------------------------------------------------|

Bridge Cont'd:  Guitar 2  2.20 sec - 2.24 sec
e|--------------------------------------------------------------------------|
B|--------------------------------------------------------------------------|
G|9-9-9-9-9-9-11-11-11-9-9-9-7-7-7-7-7-7-7-7-7------------------------------|
D|x-x-x-x-x-x--x--x--x-x-x-x-x-x-x-x-x-x-x-x-x------------------------------|
A|7-7-7-7-7-7--9--9--9-7-7-7-5-5-5-5-5-5-5-5-5------------------------------|
E|--------------------------------------------------------------------------|

Guitar 2:  Repeat Verse

Guitar 2:  Repeat Chorus

Guitar 2:  Repeat Bridge

Guitar 2  3.42 sec - 3.45 sec
e|--------------------------------------------------------------------------|
B|--------------------------------------------------------------------------|
G|7-7-7-7-9-9-9-9-9-9-12-12-12-11-9-9-9-------------------------------------|
D|x-x-x-x-x-x-x-x-x-x--x--x--x--x-x-x-x-------------------------------------|
A|5-5-5-5-7-7-7-7-7-7-10-10-10--9-7-7-7-------------------------------------|
E|--------------------------------------------------------------------------|

Guitar 2  3.49 sec - 3.53 sec
e|--------------------------------------------------------------------------|
B|--------------------------------------------------------------------------|
G|7-7-7-7-9-9-9-9-9-9-12-12-12-11-9-9-9-------------------------------------|
D|x-x-x-x-x-x-x-x-x-x--x--x--x--x-x-x-x-------------------------------------|
A|5-5-5-5-7-7-7-7-7-7-10-10-10--9-7-7-7-------------------------------------|
E|--------------------------------------------------------------------------|

Guitar 2  4.02 sec - end
e|--------------|
B|--------------|
G|---7~---------|
D|---7~---------|
A|---5~---------|
E|--------------|

LONG TAB HERE!!!  But it's *** accurate.  When there aren't parts for
guitar 2 to play anything, just play what guitar 1 is playing.  Any





Comments


Popular Over It tabs & chords
Siren On The 101 Bass Tabs
Ashland Tabs
B-54 Tabs
Gunslinger Tabs
Mister Serious Tabs
Skipping Stones Tabs
Thats Life Tabs
Think Against The Grain Tabs


Song lyrics



↑ Back to top | Tablatures and chords are parodies/interpretations of the original songs. You may use it for private study, scholarship, research or language learning purposes only
© 2014 AZChords.com Contact us | Privacy policy | DMCA | Add/correct tabs | Request tabs | Top 50 tabs