>
 >
Skipping Stones

Skipping Stones Guitar Tabs

Over It - Skipping Stones chords, tabs, tablatures, lyrics

Guitar lessons | Add/correct | Request | Top 50 tabs Artists:  A B C D E F G H I J K L M N O P Q R S T U V W X Y Z 0-9

Skipping Stones Guitar Tabs – Over It

CD, Sheet music, Poster

Do you like Skipping Stones? Share with your friends now
Tabs


~ - let ring out
PM - palm mute

Intro:  Guitar 1  (2x)
e|---------------------------------------------------------------------------|
B|---------------------------------------------------------------------------|
G|---------------9~------------7~--------------------------------------------|
D|7~-------------9~------------7~--------------------------------------------|
A|7~-------------7~------------5~--------------------------------------------|
E|5~-------------------------------------------------------------------------|

Intro:  Guitar 2
e|---------------------------------------------------------------------------|
B|---------------------------------------------------------------------------|
G|-----2-----2-2-----2-----2-2-----2-----2-2-----2---2-2-----2-----2-2-----2-|
D|-2-2---2-2-----2-2---2-2-----2-2---2-2-----2-2---2-----2-2---2-2-----2-2---|
A|---------------------------------------------------------------------------|
E|---------------------------------------------------------------------------|
   PM    PM      PM    PM      PM    PM      PM   PM     PM    PM      PM

Intro Cont'd:  Guitar 2
e|---------------------------------------------------------------------------|
B|---------------------------------------------------------------------------|
G|---------------------------------------------------------------------------|
D|----2-2-----2---2---2~-----------------------------------------------------|
A|2-2-----2-2---2---2--------------------------------------------------------|
E|---------------------------------------------------------------------------|
  PM      PM   PM  PM

Intro 2:  Guitar 1  (2x)
e|---------------------------------------------------------------------------|
B|---------------------------------------------------------------------------|
G|--------------9-9--9-9-9--9-7-7--7-7-7--7-7-7--7-7-7-----------------------|
D|7-7--7-7-7--7-9-9--9-9-9--9-7-7--7-7-7--7-7-7--7-7-7-----------------------|
A|7-7--7-7-7--7-7-7--7-7-7--7-5-5--5-5-5--5-5-5--5-5-5-----------------------|
E|5-5--5-5-5--5--------------------------------------------------------------|

Intro 2:  Guitar 2 (Starts on Guitar 1's 2nd time around)
e|---------------------------------------------------------------------------|
B|---------------------------------------------------------------------------|
G|14-14--14-14-14--13-14-14--14-14-14--13-14-14--14-14-14--14-14-14-13-11----|
D|-x--x---x--x--x---x--x--x---x--x--x---x--x--x---x--x--x---x--x--x--x--x----|
A|12-12--12-12-12--11-12-12--12-12-12--11-12-12--12-12-12--12-12-12-11--9----|
E|---------------------------------------------------------------------------|

Verse:  Guitar 1(Repeat Intro 2) There's a Palm Mute part in there

Verse:  Guitar 2
e|---------------------------------------------------------------------------|
B|---------------------------------------------------------------------------|
G|--------------9-9--9-9-9--9-7-7--7-7-7--7-7-7--7-7-7-----------------------|
D|7-7--7-7-7--7-9-9--9-9-9--9-7-7--7-7-7--7-7-7--7-7-7-----------------------|
A|7-7--7-7-7--7-7-7--7-7-7--7-5-5--5-5-5--5-5-5--5-5-5-----------------------|
E|5-5--5-5-5--5--------------------------------------------------------------|

Verse Cont'd:  Guitar 2
e|---------------------------------------------------------------------------|
B|---------------------------------------------------------------------------|
G|14-14-14-14-14-13-13-13-13-13-13-9-9-9-9-9-9-11-9--------------------------|
D|-x--x--x--x--x--x--x--x--x--x--x-x-x-x-x-x-x--x-x--------------------------|
A|12-12-12-12-12-11-11-11-11-11-11-7-7-7-7-7-7--9-7--------------------------|
E|---------------------------------------------------------------------------|

Verse Cont'd:  Guitar 2
e|---------------------------------------------------------------------------|
B|---------------------------------------------------------------------------|
G|--------------9-9--9-9-9--9-7-7--7-7-7--7-7-7--7-7-7-----------------------|
D|7-7--7-7-7--7-9-9--9-9-9--9-7-7--7-7-7--7-7-7--7-7-7-----------------------|
A|7-7--7-7-7--7-7-7--7-7-7--7-5-5--5-5-5--5-5-5--5-5-5-----------------------|
E|5-5--5-5-5--5--------------------------------------------------------------|

Verse Cont'd:  Guitar 2
e|---------------------------------------------------------------------------|
B|---------------------------------------------------------------------------|
G|14-14-14-14-14-14-13-13-13-13-13-13-9-9-9-9-9-9-11-9-----------------------|
D|-x--x--x--x--x--x--x--x--x--x--x--x-x-x-x-x-x-x--x-x-----------------------|
A|12-12-12-12-12-12-11-11-11-11-11-11-7-7-7-7-7-7--9-7-----------------------|
E|---------------------------------------------------------------------------|
  PM PM    PM PM    PM PM    PM PM    PM    PM

Chorus:  Both Guitars  (4x)
e|---------------------------------------------------------------------------|
B|---------------------------------------------------------------------------|
G|--------------------7-7-7-7-7-7-7-7-7-7------------------------------------|
D|4-4-4-4-4-2-2-2-2-2-7-7-7-7-7-7-7-7-7-7------------------------------------|
A|4-4-4-4-4-2-2-2-2-2-5-5-5-5-5-5-5-5-5-5------------------------------------|
E|2-2-2-2-2-0-0-0-0-0--------------------------------------------------------|

Repeat Intro 2:  Guitar 1

Repeat Intro 2:  Guitar 2   But end with...
e|---------------------------------------------------------------------------|
B|---------------------------------------------------------------------------|
G|11--13--9------------------------------------------------------------------|
D|-x---x--x------------------------------------------------------------------|
A|-9--11--7------------------------------------------------------------------|
E|---------------------------------------------------------------------------|

Repeat Verse

Repeat Chorus

Repeat Intro 2:  Both Guitars do Guitar 1's part  (4x)

Interlude:  Guitar 1  (Repeat Chorus with a few Palm Mute parts in it)
                      (No Singing)

Interlude:  Guitar 2  (Does some octave work but I'm too lazy to tab it out)

Ending:  Guitar 1  (Repeat Chorus again)  end on A

Ending:  Guitar 2  (Some more octave work but I don't wanna tab it out)
		   (End on A)

If someone requests for me to tab the rest out, I will.  So let me know.





Comments


Popular Over It tabs & chords
Siren On The 101 Bass Tabs
Ashland Tabs
B-54 Tabs
Gunslinger Tabs
Mister Serious Tabs
Tenth Grade Tabs
Thats Life Tabs
Think Against The Grain Tabs


Song lyrics



↑ Back to top | Tablatures and chords are parodies/interpretations of the original songs. You may use it for private study, scholarship, research or language learning purposes only
© 2014 AZChords.com Contact us | Privacy policy | DMCA | Add/correct tabs | Request tabs | Top 50 tabs