» » »

Siren On The 11 Bass tabs (ver.1)

Artists:  A B C D E F G H I J K L M N O P Q R S T U V W X Y Z # 

Siren On The 11 Bass tabs (ver.1)

Over It
Rating:
4/5 (1 vote)

Hard to play? Try these video lessons and learn fast.
                (0)
An absolutely fantastic song that nobody seems to know about. Can be tuned to 
C#, but sounds just as good in standard.

Tuning: Standard

Verse (0:06)
G|----------------------------------------------|
D|----------------------------------------------|
A|--4-6-88---8-10-11-11---11-10-10-4---4-6-8-6--|
E|----------------------------------------------|
  
(cont.)
G|--------------------------------------------------------------|
D|--------------------------------------------------------------|
A|--4-6-88---8-10-11-11---11-10-10-4---4-6-8-9~---888888888888--|
E|--------------------------------------------------------------|

(cont.)
G|----------------------------------------------|
D|----------------------------------------------|
A|--4-6-88---8-10-11-11---11-10-10-4---4-6-8-6--|
E|----------------------------------------------|

(cont.)
G|------------------------------------------------------------------|
D|------------------------------------------------------------------|
A|--4-6-88---8-10-11-11---11-10-10-4---4-6-8-9~---888888888888888\--|
E|------------------------------------------------------------------|

Chorus (0:37)x3
G|---------------------------------------------------------------------|
D|---------------------------------------------------------------------|
A|----8-----8----8----8----------10---------10-------------------------|
E|--99---999--999--999---11-11-11---11-11-11----13-13-13-13--15/16\15--|
  
(cont.)(0:55)
G|----------------------------------------|
D|----------------------------------------|
A|-------------------4~--4-6-8-6~----------|
E|--6-6-6-6-6-6-6-6-----------------------|

Repeat Verse
Repeat Chorus

REST (01:56)

Bridge P1 (01:59)
G|----------------------------------------|
D|----------------------------------------|
A|----------------------------------------|
E|--9\---9-9-9-9-9-9-9/11-11-11-----------|

Bridge P2 (02:03)
G|-------------------------------------------------------|
D|-------------------------------------------------------|
A|-------------------------------------------------------|
E|--13-13-13--11-11-11--13-13-13--11-11-11--13-13-13-13--|

Repeat P1 [w/o the 9/]
Repeat P2
Repeat P1
Repeat P2

(02:18)
G|------------------------|
D|------------------------|
A|--4~--4-6-8-6~----------|
E|------------------------|

PAUSE for vocals

(02:33)
G|-------------------------------------------------|
D|-------------------------------------------------|
A|----------------------------------4~--4-6-8-6~---|
E|--99~--11~--8~--6-6-6-6-6-6-8888-----------------|

Repeat Chorus

Ending (03:10) REST

(03:13)
G|-------------------------------------------|
D|-------------------------------------------|
A|--888--666--888--666--999--8~--------------|
E|-------------------------------------------|

END  
            
Hard to play? Try these video lessons and learn fast. | Correct




comments powered by Disqus
↑ Back to top | Tablatures and chords are parodies/interpretations of the original songs. You may use it for private study, scholarship, research or language learning purposes only