>
 >
Gunslinger

Gunslinger Guitar Tabs

Over It - Gunslinger chords, tabs, tablatures, lyrics

Guitar lessons | Add/correct | Request | Top 50 tabs Artists:  A B C D E F G H I J K L M N O P Q R S T U V W X Y Z 0-9

Gunslinger Guitar Tabs – Over It

CD, Sheet music, Poster

Do you like Gunslinger? Share with your friends now
Tabs
Intro:

Guitar 1:

e|------------------------------------------------------------------------|
B|------------------------------------------------------------------------|
G|---8-5-3h5--7---------7--5---2-2h3--5--2-2-2h3h5------------------------|
D|---------------8--------------------------------------------------------|
A|------------------8-----------------------------------------------------|
E|------------------------------------------------------------------------|

Guitar 2:

play x2                   play x2
e|--3--------1-------|  e|--------------------------------------|
B|--4---3----1-------|  B|--------------------------------------|
G|--5---3----2-------|  G|--------------------------------------|
D|--5---3----3-------|  D|---10------8-------3------------------|
A|--3---1----3-------|  A|---10------8-------3------------------|
E|-----------1-------|  E|---8-(x5)--6(x5)---1(x10)-------------|


Verse:

Guitar 1:

play x2                   play x2
e|--3--------1-------|  e|-------------------------|
B|--4---3----1-------|  B|-------------------------|
G|--5---3----2-------|  G|-------------------------|
D|--5---3----3-------|  D|-------------------------|
A|--3---1----3-------|  A|---10---8---3------------|
E|-----------1-------|  E|---8----6---1------------|


Guitar 2:

e|--------------------------------------------------------------------------------|
B|-------8--------8--------3---------3--------------------------------------------|
G|---5-5---5--5-5---5--3-3---3--3-3----3-------5---------5----------5---------5---|
D|----------------------------------------3-3----3--3-3----3---3-3----3--3-3-----3|
A|--------------------------------------------------------------------------------|
E|--------------------------------------------------------------------------------|


Pre chorus:

guitar 1:

e|----------------------------------------------1----------x-------|
B|----------------------------------------------1----------x-------|
G|----------------------------------------------2----------x-------|
D|---6---------8-------10--------6------8-------3----------x-------|
A|---6---------8-------10--------6------8-------3----------x-------|
E|---4(x8)-----6(x8)---8-(x16)---4(x8)--6(x8)---1(x4)------x(x3)---|


Guitar 2:


e|---------11-------------------------13------------------------11-----------11-----------11-|
B|-9-11-9-------11--9-11------11----------11-----11----13-11-13----13-11-13------13-11-13----|
G|------------------------10------10---------10----------------------------------------------|
D|-------------------------------------------------------------------------------------------|
A|-------------------------------------------------------------------------------------------|
E|-------------------------------------------------------------------------------------------|

Chorus:

e|------------------------------------------------------------------------|
B|------------------------------------------------------------------------|
G|------------------------------------------------------------------------|
D|---10------8-------3------10----------------3-------x------6------8-----|
A|---10------8-------3------10--------8-------3-------x------6------8-----|
E|---8-(x8)--6(x8)---1(x16)--8-(x8)---10(x8)--1(x16)--x(x4)--4(x16)-6(x10)|


Verse 2:

Guitar 1:

play x3          
e|-------------|  e|---------------------|
B|-------------|  B|---------------------|
G|-------------|  G|---------------------|
D|-------------|  D|---------------------|
A|--10--8--3---|  A|---10--8---15--------|
E|--8---6--1---|  E|---8---10--13--------|


Guitar 2:

e|-----------------------------------------------------------|
B|-------8--------8--------3---------3------6-4-6-6-4-6-4-6--|
G|---5-5---5--5-5---5--3-3---3--3-3----3---------------------|
D|-----------------------------------------------------------|
A|-----------------------------------------------------------|
E|-----------------------------------------------------------|



Pre chorus 2:


guitar 1:

e|----------------------------------------------1----------x-------|
B|----------------------------------------------1----------x-------|
G|----------------------------------------------2----------x-------|
D|---6---------8-------10--------6------8-------3----------x-------|
A|---6---------8-------10--------6------8-------3----------x-------|
E|---4(x8)-----6(x8)---8-(x16)---4(x8)--6(x8)---1(x4)------x(x3)---|



Guitar 2:

e|--11-11-11-10-----------13--11-10---------15--11-10---11-10-11-15---11-10-----|
B|---------------13-11--------------13-11-----------------------------------11--|
G|------------------------------------------------------------------------------|
D|------------------------------------------------------------------------------|
A|------------------------------------------------------------------------------|
E|------------------------------------------------------------------------------|

e|---11-11-10----------13--11-------------15--15--15v------------------------|
B|-------------13-11-----------11--------------------------------------------|
G|---------------------------------------------------------------------------|
D|---------------------------------------------------------------------------|
A|---------------------------------------------------------------------------|
E|---------------------------------------------------------------------------|

Bridge(bass solo):

Guitar 1:

e|---------------------------------------------------------------------------|
B|---------------------------------------------------------------------------|
G|--8-7-8--7-8-7---8-7-8--7-8-7----------------------------------------------|
D|---------------------------------------------------------------------------|
A|---------------------------------------------------------------------------|
E|---------------------------------------------------------------------------|

Guitar 2:

e|---------------------------------------------------------------------------|
B|----11--11-11-11--10--10-10--8--8-8--6-6-6--4--4-4--3----------------------|
G|-8-------------------------------------------------------------------------|
D|---------------------------------------------------------------------------|
A|---------------------------------------------------------------------------|
E|---------------------------------------------------------------------------|


Breakdown:

e|----------------------------------------------------------------------8-11--16-20-------|
B|-6/13\6---10-----10-----10------10-------11----11----11----11------9--------------------|
G|-------------10-----10------10-----10-------11----11----11----11------------------------|
D|-----------------------------------------------------------------------------------x----|
A|-----------------------------------------------------------------------------------x----|
E|-----------------------------------------------------------------------------------x(x4)|


Ending(everything half step up):


e|------------------------------------------------------------------------|
B|------------------------------------------------------------------------|
G|------------------------------------------------------------------------|
D|---11------9-------4------11----------------4-------x------7------9-----|
A|---11------9-------4------11--------9-------4-------x------7------9-----|
E|---9-(x8)--7(x8)---2(x16)--9-(x8)---11(x8)--2(x16)--x(x4)--5(x16)-7(x10)|


e|---------------------------------------------------------------------------|
B|---------------------------------------------------------------------------|
G|---------------------------------------------------------------------------|
D|--7---------9--11---13---14-------------10--11-------9-------4-------------|
A|--7---------x--x----x----x-----9-11-12------11-------9-------4-------------|
E|--5(x16)----7--9----11---12-----------------9-(x5)---7(x5)---2(x10)--------|


e|------------------------------------------------------------------------|
B|------------------------------------------------------------------------|
G|---9-6-4h6--8---------8--6---3-3h4--6--3-3-3h4h6------------------------|
D|---------------9--------------------------------------------------------|
A|------------------9-----------------------------------------------------|
E|------------------------------------------------------------------------|





Comments


Popular Over It tabs & chords
Siren On The 101 Bass Tabs
Ashland Tabs
B-54 Tabs
Mister Serious Tabs
Skipping Stones Tabs
Tenth Grade Tabs
Thats Life Tabs
Think Against The Grain Tabs


Song lyrics



↑ Back to top | Tablatures and chords are parodies/interpretations of the original songs. You may use it for private study, scholarship, research or language learning purposes only
© 2014 AZChords.com Contact us | Privacy policy | DMCA | Add/correct tabs | Request tabs | Top 50 tabs