>
 >
Ashland

Ashland Guitar Tabs

Over It - Ashland chords, tabs, tablatures, lyrics

Guitar lessons | Add/correct | Request | Top 50 tabs Artists:  A B C D E F G H I J K L M N O P Q R S T U V W X Y Z 0-9

Ashland Guitar Tabs – Over It

CD, Sheet music, Poster

Do you like Ashland? Share with your friends now
Tabs
Band:		Over It
Album:		The Ready Series
Label:		Negative Progression Records


Lead Guitar

Main Riff
E|-----------------------------------------------|
B|-----------------------------------------------|
G|-13-12-8--12/13-12-108--13-12-8--12/13-12-12-8-|
D|-x--x--x--x--x--x--x-x--x--x--x--x--x--x--x--x-|
A|-11-10-6--10/11-10-8-6--11-10-6--10/11-11-10-6-|
E|-----------------------------------------------|
(Play chords as many times as needed.)

Verse
E|------------------------------------|
B|------------------------------------|
G|----------8-----------------6-------|
D|-6--------8--------3--------6-------|
A|-6--------6-(x16)--3--------4-(x16)-|
E|-4-(x16)-----------1-(x16)----------|

Chorus
E|-----------------------------------------------------------------|
B|-----------------------------------------------------------------|
G|---------------5-6-6-6-6-6-6-6-6-------------------------8-8-8-8-|
D|-3-3-3-3-3-3-3-5-6-6-6-6-6-6-6-6-6-6-6-6-5-5-5-5-3-3-3-3-8-8-8-8-|
A|-3-3-3-3-3-3-3-3-4-4-4-4-4-4-4-4-6-6-6-6-5-5-5-5-3-3-3-3-6-6-6-6-|
E|-1-1-1-1-1-1-1-------------------4-4-4-4-3-3-3-3-1-1-1-1---------|

Bridge (Palm Muted)
E|----------------------------------------------------------|
B|----------------------------------------------------------|
G|--------8-------------6-------------8------10--------xxxx-|
D|-6------8------3------6------6------8------10--------xxxx-|
A|-6------6-(x8)-3------4-(x8)-6------6-(x8)-8--(x8)---xxxx-|
E|-4-(x8)--------1-(x8)--------4-(x8)-----------------------|

Outro
E|-------------------------------------------------------|
B|-------------------------------------------------------|
G|-13-------15-------12-------13-------12----------------|
D|-x--------x--------x--------x--------x-------6~------6-|
A|-11-(x24)-13-(x8)--10-(x2)--11-(x6)--10-(x8)-6~------6-|
E|---------------------------------------------4~------4-|


Rhythm Guitar

Main Riff
E|------------------------------------|
B|------------------------------------|
G|----------8-----------------6-------|
D|-6--------8--------3--------6-------|
A|-6--------6-(x16)--3--------4-(x16)-|
E|-4-(x16)-----------1-(x16)----------|

Verse
E|------------------------------------|
B|------------------------------------|
G|----------8-----------------6-------|
D|-6--------8--------3--------6-------|
A|-6--------6-(x16)--3--------4-(x16)-|
E|-4-(x16)-----------1-(x16)----------|

Chorus
E|-----------------------------------------------------------------|
B|-----------------------------------------------------------------|
G|---------------5-6-6-6-6-6-6-6-6-------------------------8-8-8-8-|
D|-3-3-3-3-3-3-3-5-6-6-6-6-6-6-6-6-6-6-6-6-5-5-5-5-3-3-3-3-8-8-8-8-|
A|-3-3-3-3-3-3-3-3-4-4-4-4-4-4-4-4-6-6-6-6-5-5-5-5-3-3-3-3-6-6-6-6-|
E|-1-1-1-1-1-1-1-------------------4-4-4-4-3-3-3-3-1-1-1-1---------|

Bridge (Palm Muted)
E|----------------------------------------------------------|
B|----------------------------------------------------------|
G|--------8-------------6-------------8------10--------xxxx-|
D|-6------8------3------6------6------8------10--------xxxx-|
A|-6------6-(x8)-3------4-(x8)-6------6-(x8)-8--(x8)---xxxx-|
E|-4-(x8)--------1-(x8)--------4-(x8)-----------------------|

Outro
E|-------------------------------------------------------|
B|-------------------------------------------------------|
G|-------------------------------------------------------|
D|---------------------------------------------6~------6-|
A|---------------------------------------------6~------6-|
E|-11~-----10~-----8~-----6~-----4~-----6~-----4~------4-|

My first tab.





Comments


Popular Over It tabs & chords
Siren On The 101 Bass Tabs
B-54 Tabs
Gunslinger Tabs
Mister Serious Tabs
Skipping Stones Tabs
Tenth Grade Tabs
Thats Life Tabs
Think Against The Grain Tabs


Song lyrics



↑ Back to top | Tablatures and chords are parodies/interpretations of the original songs. You may use it for private study, scholarship, research or language learning purposes only
© 2014 AZChords.com Contact us | Privacy policy | DMCA | Add/correct tabs | Request tabs | Top 50 tabs