» » »

Outkast, Wheelz Of Steel Bass tabs (ver.1)

Artists:  A B C D E F G H I J K L M N O P Q R S T U V W X Y Z # 

Wheelz Of Steel Bass tabs (ver.1)

Outkast Tabs
 Rating:
4/5 (4 votes)
Wheelz Of Steel lessons Tabs too difficult? Try these video lessons and learn fast
                Intro: (00:14)
G|-------------|-------------|-------------|------|
D|-------------|-------------|-------------|------|
A|-14-12-14-12-|-14-12-14-12-|-14-12-14-12-|------|
E|-------------|-------------|-------------|-7/14-|


Verse: (00:21)
G|-------------|---------|---------|-------------|
D|-------------|---------|---------|-------------|
A|-------------|---------|---------|-------------|
E|-7-/14(12)-7-|-5--5--5-|-4--4--4-|-3--/10(8)-3-|

       (00:30)
G|-------------|---------|----------|---------|
D|-------------|---------|----------|---------|
A|-------------|---------|----------|---------|
E|-7-/14(12)14-|-5--5--5-|-4--4/--4-|-3--3--3-|

       (00:39)
G|---------|---------|---------|---------------|
D|---------|---------|---------|---------------|
A|---------|---------|---------|---------------|
E|-7--7--7-|-5--5--5-|-4--4--4-|-3-(5)/10(8)-3-|

       (00:47)
G|---------|-------------|---------|----------|
D|---------|-------------|---------|----------|
A|---------|-------------|---------|----------|
E|-7--7--7-|-5--5--(3)/5-|-4--4--4-|-3--3--3/-|


Chorus:(00:55)
G|------------|---------|--------------|---------|
D|------------|---------|--------------|---------|
A|------------|---------|--------------|---------|
E|-7-/1412h14-|-5--5--5-|-4--2/4--2/4-|-3--3--3-|

       (01:04)
G|----------|-----------|---------|-----------|
D|----------|-----------|---------|-----------|
A|----------|-----------|---------|-----------|
E|-7--7--57-|-5--35--35-|-4--4--4-|-3-3/10810-|

       (01:13)
G|---------------|--------------|---------|-------------|
D|---------------|--------------|---------|-------------|
A|---------------|--------------|---------|-------------|
E|-7-(7)/1412h14-|-5--(4)5-3/10-|-4--4--4-|-3--2/3--2/3-|

       (01:21)
G|---------------|---------|---------|---------|
D|---------------|---------|---------|---------|
A|---------------|---------|---------|---------|
E|-7-(7)/1412h14-|-5--5--5-|-4--4--4-|-3--3--3-|

       (01:30)
G|-------------|------------|---------|---------|
D|-------------|------------|---------|---------|
A|-------------|------------|---------|---------|
E|-------------|------------|-4--4--4-|-3-------|

       (01:38)
G|----------|--------------------|---------|------------|
D|----------|--------------------|---------|------------|
A|----------|--------------------|---------|------------|
E|-57--7--7-|-5--10/12-(10)10/12-|-4--4--4-|-3--2/3--23-|

       (01:47)
G|---------------|---------|----------|-----------|
D|---------------|---------|----------|-----------|
A|---------------|---------|----------|-----------|
E|-7-(7)/1412h14-|-5--5--5-|-4--4--4/-|-3--3-(2)3-|

       (01:56)
G|-------------|------------|-----------|---------|
D|-------------|------------|-----------|---------|
A|-------------|------------|-----------|---------|
E|-------------|------------|-114--4--4-|-3h4r----|

       (02:04)
G|-------------|--------------|------------|------------|
D|-------------|--------------|------------|------------|
A|-------------|--------------|------------|------------|
E|-567--57--57-|-5--35--3/105-|-9--64--234-|-3--23--23/-|

      (02:13)
G|---------------|---------|---------|-------------|
D|---------------|---------|---------|-------------|
A|---------------|---------|---------|-------------|
E|-7-(7)/1412h14-|-5--5--5-|-4--4--4-|-3--3/10(8)3-|

       (02:22)
G|-------------|---------|---------|---------------|
D|-------------|---------|---------|---------------|
A|-------------|---------|---------|---------------|
E|-7-(7)/14127-|-5--5--5-|-4--4--4-|-3-02/10-8/108-|

       (02:30)
G|-------------|---------|---------|----------|
D|-------------|---------|---------|----------|
A|-------------|---------|---------|----------|
E|-7-(7)/14127-|-5--5--5-|-4--4--4-|-3--3--23-|

       (02:38)
G|-------------|------------|------------|-------------|
D|-------------|------------|------------|-------------|
A|-------------|------------|------------|-------------|
E|-------------|------------|------------|-------------|

       (02:47)
G|-------------|-------------|---------|-----------|
D|-------------|-------------|---------|-----------|
A|-------------|-------------|---------|-----------|
E|-7-(7)/14127-|-5--5--3h5p3-|-4--4--4-|-3--3--123-|

       (02:56)
G|---------------|------------|------------|------------|
D|---------------|------------|------------|------------|
A|---------------|------------|------------|------------|
E|-7-(7)/1412/14-|-5--5--(4)5-|-4--4--(3)4-|-3--3--(2)3-|

       (03:04)
G|-----------|------------|----------------|------------|
D|-----------|------------|----------------|------------|
A|----9---9--|----7----7--|----6-----6-64--|------------|
E|-7---7---7-|-5---5--5-5-|-4---4---4----6-|-3--03--023-|

       (03:13)
G|---------------|------------|-------------|---------------|
D|---------------|------------|-------------|---------------|
A|---------------|-----7---7--|-------------|---------------|
E|-7-(7)/1412109-|-5--5---5-5-|-44--34--343-|-33--23--23/10-|

       (03:22)
G|---------------|---------|----------|-------------|
D|---------------|---------|----------|-------------|
A|---------------|---------|----------|-------------|
E|-7-(7)/1412h14-|-5--5--5-|-4--4---02|-33--23--2/3-|

       (03:30)
G|---------------|-----------|----------|------|
D|---------------|-----------|----------|------|
A|---------------|----7---7--|--666~-6--|--555-|
E|-7-(7)/1412-10-|-5---5---55|-4----4-4-|-3----|
 
            
Submit corrections

comments powered by Disqus
↑ Back to top | Outkast Bass for Wheelz Of Steel. Lyrics for acoustic guitar and electric guitar. Tablatures and chords are parodies/interpretations of the original songs. You may use it for private study, scholarship, research or language learning purposes only