» » »

Outkast, And The Whole World Bass tabs (ver.2)

Artists:  A B C D E F G H I J K L M N O P Q R S T U V W X Y Z # 

And The Whole World Bass tabs (ver.2)

Outkast Tabs
 Rating:
3.7/5 (6 votes)
And The Whole World lessons Tabs too difficult? Try these video lessons and learn fast
                This is my first tab, so go easy on me, besides i am 100% sure this is right.

Standard tuning

[Use a swing rythme (6/8).]

Intro:

   1 + 2 + 3 + 4 + 1 + 2 + 3 + 4 + 1 + 2 + 3 + 4 + 1
g: --------------------------------------------------|
d: ------------2-4-----------------------------2-4---|  etc.....
a: ----------4-------------------------------4-------|
e: ----------------2-------------------------------2-|

Rest of song:


   1 + 2 + 3 + 4 + 1 + 2 + 3 + 4 + 1 + 2 + 3 + 4 + 1 + 2 + 3 + 4
g: --------------------------------------------------------------|
d: --------------------------------------------------------------|
a:---------------0-4---4---4---4-0-5---5---5---5-----------4---4-|
e: 2---2---2---2-----------------------------------4---4---------|


with the occasional F# just playing the first beat...

cheers
            
Submit corrections

comments powered by Disqus
↑ Back to top | Outkast Bass for And The Whole World. Lyrics for acoustic guitar and electric guitar. Tablatures and chords are parodies/interpretations of the original songs. You may use it for private study, scholarship, research or language learning purposes only