» » »

Southernplayalisticadillacmuzik Bass tabs (ver.1)

Artists:  A B C D E F G H I J K L M N O P Q R S T U V W X Y Z # 

Southernplayalisticadillacmuzik Bass tabs (ver.1)

Outkast
Rating:
0/5 (0 votes)

Hard to play? Try these video lessons and learn fast.
                G|| ------------------------------|
D||*--------3---------------------|
A||*------3-----3-------------0---|
E|| 1---------------4-------------|
    1 e & a 2 e & a 3 e & a 4 e & a


G|------------------------------- ||
D|-------------------------------*||
A|1-----------3---4-------3------*||
E|------------------------------- ||
  1 e & a 2 e & a 3 e & a 4 e & a

Thats the whole song, Haha. Super smooth and funky bass line though...
            
Hard to play? Try these video lessons and learn fast. | Correct




comments powered by Disqus
↑ Back to top | Tablatures and chords are parodies/interpretations of the original songs. You may use it for private study, scholarship, research or language learning purposes only