» » »

Outkast, Mighty O Bass tabs (ver.1)

Artists:  A B C D E F G H I J K L M N O P Q R S T U V W X Y Z # 

Mighty O Bass tabs (ver.1)

Outkast Tabs
Rating:
0/5 (0 votes)
Mighty O lessons Tabs too difficult? Try these video lessons and learn fast
                Track – Mighty O
Artist – Outkast
Album - Idlewild


Played through the whole song

G-----------------------------|
D---0---0---------------------|  x3
A-----0---0-----8---8---------|
E----------------8---8--------|


G---------------------------|
D---8---8----------8--7-----|
A-----8---8-----7--------7--|
E---------------------------|
            
Submit corrections

comments powered by Disqus
↑ Back to top | Outkast Bass for Mighty O. Lyrics for acoustic guitar and electric guitar. Tablatures and chords are parodies/interpretations of the original songs. You may use it for private study, scholarship, research or language learning purposes only