>
 >
Hey Nah 2

Hey Nah 2 Guitar Tabs

Outkast - Hey Nah 2 chords, tabs, tablatures, lyrics

Guitar lessons | Add/correct | Request | Top 50 tabs Artists:  A B C D E F G H I J K L M N O P Q R S T U V W X Y Z 0-9

Hey Nah 2 Guitar Tabs – Outkast

CD, Sheet music, Poster

Do you like Hey Nah 2? Share with your friends now
TabsTabs v2Tabs v3
Ive seen a few tabs on this song and they have been sorta right but not exactly how the dude on the clip plays it so i just figured it out by watching him and comparing it to other tabs anyways this is my first tab but i dont care coz its right Except for the keyboard solo i couldnt be bothered figuring that out properly coz ya alwayts hear about them first timers who want ya to go easy on em anyways 
 
   G             G/C                       D       E
e|-3-3-3-3-3-3---3-3-3-3-3-3-3-3-3-3-3-3---2-2-2---0-0-0-0-0-0-0-0-0-0-0-0-|
b|-3-3-3-3-3-3---1-1-1-1-1-1-1-1-1-1-1-1---3-3-3---0-0-0-0-0-0-0-0-0-0-0-0-|
g|-0-0-0-0-0-0---0-0-0-0-0-0-0-0-0-0-0-0---2-2-2---1-1-1-1-1-1-1-1-1-1-1-1-|
d|-0-0-0-0-0-0---2-2-2-2-2-2-2-2-2-2-2-2---0-0-0---2-2-2-2-2-2-2-2-2-2-2-2-|
a|-2-2-2-2-2-2---3-3-3-3-3-3-3-3-3-3-3-3-----------2-2-2-2-2-2-2-2-2-2-2-2-|
E|-3-3-3-3-3-3---0-0-0-0-0-0-0-0-0-0-0-0-----------0-0-0-0-0-0-0-0-0-0-0-0-| 

 above is how many times i strum it so you sorta get the idea coz ya have to play the G/C chord like twice aslong as the others and incase ya didnt have the song with ya

heres the next part but it aint right and i dont really wana tab it out but its close enough 

e|--------------12-------------12--------------------------------|
b|--12--13--15------12--13--15-----15--13--12------12------------|
g|---------------------------------------------14-----12---------|
d|--------------------------------------------------------14-14--|
a|---------------------------------------------------------------|
E|---------------------------------------------------------------|
 
enjoy m8s the tab on this site wasnt even the right name but i had to call it hey nah to get this tab in here





Comments


Popular Outkast tabs & chords
Atliens 1 Bass Tabs
Elevators (Me & You) Bass Tabs
Hey Ya 3 Bass Tabs
Roses Bass Tabs
Hollywood Divorce Chords
Hollywood Divorce 1 Chords
Mrs Jackson Chords
Idlewild Blue Tabs
Mrs. Jackson Tabs
Spottieottiedopalicious Intro Tabs


Song lyrics



↑ Back to top | Tablatures and chords are parodies/interpretations of the original songs. You may use it for private study, scholarship, research or language learning purposes only
© 2014 AZChords.com Contact us | Privacy policy | DMCA | Add/correct tabs | Request tabs | Top 50 tabs