» » »

Outbreak, Pushed Aside Tabs (ver.1)

Artists:  A B C D E F G H I J K L M N O P Q R S T U V W X Y Z # 

Pushed Aside Tabs (ver.1)

Outbreak Tabs
 Rating:
4/5 (4 votes)
Pushed Aside lessons Tabs too difficult? Try these video lessons and learn fast
                standard tuning
album-you make us sick
bridge nine records


--------------------------------------------------|
--------------------------------------------------|
-2-2-2-2-5-5-5-5-7-7-7-8--------------------------|
-2-2-2-2-5-5-5-5-7-7-7-8--x3----------------------|
-0-0-0-0-3-3-3-3-5-5-5-6--------------------------|
--------------------------------------------------|


--------------------------------------------------|
--------------------------------------------------|
--------------------------------------------------|
-7-7-7-7-5-5-5-5-4-4-4-8--------------------------|
-7-7-7-7-5-5-5-5-4-4-4-8--------------------------|
-5-5-5-5-3-3-3-3-2-2-2-6--------------------------|


--------------------------------------------------|
--------------------------------------------------|
-7-7-7-7-7-7-7-7-8-8-8-8-5-5-5-5------------------|
-7-7-7-7-7-7-7-7-8-8-8-8-5-5-5-5--x2--------------|
-5-5-5-5-5-5-5-5-6-6-6-6-3-3-3-3------------------|
--------------------------------------------------|


--------------------------------------------------|
--------------------------------------------------|
-2-2-2-2-5-5-5-5-7-7-7-8--------------------------|
-2-2-2-2-5-5-5-5-7-7-7-8--x3----------------------|
-0-0-0-0-3-3-3-3-5-5-5-6--------------------------|
--------------------------------------------------|

--------------------------------------------------|
--------------------------------------------------|
--------------------------------------------------|
-7-7-7-7-5-5-5-5-4-4-4-8--------------------------|
-7-7-7-7-5-5-5-5-4-4-4-8--------------------------|
-5-5-5-5-3-3-3-3-2-2-2-6--------------------------|


--------------------------------------------------|
--------------------------------------------------|
-2-2-2-2-2-2-2-2-5-7-8-8-8-8----------------------|
-2-2-2-2-2-2-2-2-5-7-8-8-8-8--x3------------------|
-0-0-0-0-0-0-0-0-3-5-6-6-6-6----------------------|
--------------------------------------------------|


--------------------------------------------------|
--------------------------------------------------|
-2---5-7-8----------------------------------------|
-2---5-7-8----------------------------------------|
-0---3-5-6----------------------------------------|
--------------------------------------------------|
            
Submit corrections

comments powered by Disqus
↑ Back to top | Outbreak Tabs for Pushed Aside. Lyrics for acoustic guitar and electric guitar. Tablatures and chords are parodies/interpretations of the original songs. You may use it for private study, scholarship, research or language learning purposes only