» » »

Outbreak, Mp Tabs (ver.1)

Artists:  A B C D E F G H I J K L M N O P Q R S T U V W X Y Z # 

Mp Tabs (ver.1)

Outbreak Tabs
Rating:
0/5 (0 votes)
Mp lessons Tabs too difficult? Try these video lessons and learn fast
                standard tuning
album-you make us sick
bridge nine records


--------------------------------------------------|
--------------------------------------------------|
-2------------------------------------------------|
-2------------------------------------------------|
-0------------------------------------------------|
--------------------------------------------------|


--------------------------------------------------|
--------------------------------------------------|
----2-2-2-----------3-3-3---------------2~--------|
----2-2-2-2-2-2-2-2-3-3-3-2-2-2-2-2--x4-2~--------|
----0-0-0-2-2-2-2-2-1-1-1-2-2-2-2-2-----0~--------|
----------0-0-0-0-0-------0-0-0-0-0---------------|


--------------------------------------------------|
--------------------------------------------------|
-2---------2--------------------------------------|
-2-x8-2----2-x8-2---------------------------------|
-0----2-x8-0----2-x8------------------------------|
------0---------0---------------------------------|
 .    .    .    .


--------------------------------------------------|
--------------------------------------------------|
-2-2-2-----------3-3-3----------------------------|
-2-2-2-2-2-2-2-2-3-3-3-2-2-2-2-2------------------|
-0-0-0-2-2-2-2-2-1-1-1-2-2-2-2-2------------------|
-------0-0-0-0-0-------0-0-0-0-0------------------|

--------------------------------------------------|
--------------------------------------------------|
-2-2-2-----------3-3-3----------------------------|
-2-2-2-2-2-2-2-2-3-3-3-2--------------------------|
-0-0-0-2-2-2-2-2-1-1-1-2--------------------------|
-------0-0-0-0-0-------0--------------------------|
            

comments powered by Disqus
↑ Back to top | Outbreak Tabs for Mp. Lyrics for acoustic guitar and electric guitar. Tablatures and chords are parodies/interpretations of the original songs. You may use it for private study, scholarship, research or language learning purposes only