» » »

Lost For Words Tabs (ver.1)

Artists:  A B C D E F G H I J K L M N O P Q R S T U V W X Y Z # 

Lost For Words Tabs (ver.1)

Outbreak
Rating:
0/5 (0 votes)

Hard to play? Try these video lessons and learn fast.
                

Tuning: Standard

You're Scum.


  0:00
e|-----------------------------------------|
B|-----------------------------------------|
G|-----------------------------------------| x3
D|-----------------------------------------|
A|--999999999999-88-77-555555555555-77-88--|
E|--777777777777-66-55-333333333333-55-66--|
    ............ .. .. ............ .. ..

  0:21
e|-----------------------------------------|
B|-----------------------------------------|
G|-----------------------------------------|
D|-----------------------------------------|
A|--999999999999-88-77-555555555555-77-88--|
E|--777777777777-66-55-333333333333-55-66--|
    ............ .. .. .......
Gradually lift palm until strings are no longer muted.
(Listen to track for timing)

  0:28
e|-----------------------------------------|
B|-----------------------------------------|
G|-----------------------------------------|
D|-----------------------------------------|
A|--999999999999-88-77-555555555555-77-88--|
E|--777777777777-66-55-333333333333-55-66--|
    ............ .. .. ............ .. ..

  0:35
e|---------------------------------------|
B|---------------------------------------|
G|---------------------------------------|
D|---------------------------------------|
A|--999999999999-88-77-555555555555-7-8--|
E|--777777777777-66-55-333333333333-5-6--|
    ............ .. .. .......

  0:42
e|-----||---------------------------------------|
B|-----||---------------------------------------|
G|-----||---------------------------------[x3]--|
D|-----||---------------------------------------|
A|--9--||--5-7-8-9--5-7-8-9--5-7-8-55-77--------|
E|--7--||--3-5-6-7--3-5-6-7--3-5-6-33-55--------|
  
  0:53
e|-----||----------------------------------------------------|
B|-----||----------------------------------------------------|
G|-----||----------------------------------------------------|
D|-----||-------------------------------------------------2--|
A|--9--||--5-7-8-9--5-7-8-9--5-7-8-55-77-55-77-5-4-3------2--|
E|--7--||--3-5-6-7--3-5-6-7--3-5-6-33-55-33-55-3-2-1------0--|
            
Hard to play? Try these video lessons and learn fast. | Correct




comments powered by Disqus
↑ Back to top | Tablatures and chords are parodies/interpretations of the original songs. You may use it for private study, scholarship, research or language learning purposes only