» » »

Outbreak, Down Not Out Tabs (ver.1)

Artists:  A B C D E F G H I J K L M N O P Q R S T U V W X Y Z # 

Down Not Out Tabs (ver.1)

Outbreak Tabs
 Rating:
4/5 (4 votes)
Down Not Out lessons Tabs too difficult? Try these video lessons and learn fast
1
                

Tuning: Standard

You’re Scum.


  0:01
e|----------------------------------------------------|
B|----------------------------------------------------|
G|--7-6-5~--------------------5~----------------------|
D|--7-6-5~--------------------5~----------------------|
A|--5-4-3~--------------------3~----------------------|
E|----------------------------------------------------|

  0:13                        0:22       0:23
e|--------------------------||---------||--------------------------|
B|--------------------------||---------||--------------------------|
G|--4-5-6-77-777-777--[x4]--||--4-5-6--||--------------------[x3]--|
D|--4-5-6-77-777-777--------||--4-5-6--||--3-2-33-2-33-2-33--------|
A|--2-3-4-55-555-555--------||--2-3-4--||--3-2-33-2-33-2-33--------|
E|--------------------------||---------||--1-0-11-0-11-0-11--------|

  0:30               0:32                        0:41       0:42
e|-----------------||--------------------------||---------||--------------------------|
B|-----------------||--------------------------||---------||--------------------------|
G|-----------------||--4-5-6-77-777-777--[x4]--||--4-5-6--||--------------------[x3]--|
D|--3-2-33-2-33-2--||--4-5-6-77-777-777--------||--4-5-6--||--3-2-33-2-33-2-33--------|
A|--3-2-33-2-33-2--||--2-3-4-55-555-555--------||--2-3-4--||--3-2-33-2-33-2-33--------|
E|--1-0-11-0-11-0--||--------------------------||---------||--1-0-11-0-11-0-11--------|
                
  0:49                0:51
e|-----------------||------------------|
B|-----------------||------------------|
G|-----------------||--4-5-6~----------|
D|--3-2-33-2-33-2--||--4-5-6~----------|
A|--3-2-33-2-33-2--||--2-3-4~----------|
E|--1-0-11-0-11-0--||------------------|

  0:59                    1:06
e|----------------------||------------------1~------------|
B|----------------------||------------------1~------------|
G|----------------[x3]--||--109-9109-9109-9-1~------------|
D|-3-2-33-2-33-2--------||--109-9109-9109-9-3~------------|
A|-3-2-33-2-33-2--------||--8-7-78-7-78-7-7-3~------------|
E|-1-0-11-0-11-0--------||------------------1~------------|
            
Submit corrections

comments powered by Disqus
↑ Back to top | Outbreak Tabs for Down Not Out. Lyrics for acoustic guitar and electric guitar. 1 Tablatures and chords are parodies/interpretations of the original songs. You may use it for private study, scholarship, research or language learning purposes only