» » »

Ours, Sometimes Tabs (ver.5)

Artists:  A B C D E F G H I J K L M N O P Q R S T U V W X Y Z # 

Sometimes Tabs (ver.5)

Ours Tabs
 Rating:
4/5 (4 votes)
Sometimes lessons Tabs too difficult? Try these video lessons and learn fast
                Band: Ours

tuning: i'm assuming normal E


*intro* (clean guitar)

--------------------------|
--------------------------|
--------------------------|
--------------------------|
-----10--10-----9--9----7-|
--0----------0------------|


--------------------------|
--------------------------|
-----12--12----11-11----9-|
------x---x-----x--x----x-|
-----10--10-----9--9----7-|
--0----------0------------|

*Guitar 1* (with distortion)

--222-3-2-3----------0----------------------------------------------------------|\
--333-3-3-3-(strum)--5----------------------------------------------------------|(bend-or-use-whammy-} \
--222-2-2-2--------------------------------}  \ repeat 4 times along w/guitar 2-|
--------------------------------------------------------------------------------|  /
--------------------------------------------------------------------------------| /
--------------------------------------------------------------------------------|/

*Guitar 2* (with distortion)

--222-3-2-3--------------------------------------------------------------|\
--333-3-3-3-(strum)------------------------------------------------------| \
--222-2-2-2-----------12--12----11-11----9-}  \ repeat 4 times than do---|
-------------------2---x---x-----x--x----x-}  /                       ---|
-------------------2--10--10-----9--9----7-} /                        ---|
-------------------0----------0------------}/                         ---|
                                                                       |
             <-----------------------------------------------------------|
-------------------------------------------------------------------------|
-------------------------------------------------------------------------|
--77-7-------------------------------------------------------------------|
--77-7-------------------------------------------------------------------|
--55-5-------------------------------------------------------------------|
-------------------------------------------------------------------------|

*verse* (clean guitar)

------0----------0-------------------2-----\-|
------0----------1---------0---------3-------| \
----0----0----------0------0-------2----2----|  \ repeat 4 times
--2-----------2----------0----0--0-----------|  /
------------3----------2---------------------| /
---------------------------------------------|

*verse 2* (distortion)

--222-3-2-3--------------------------------}
--333-3-3-3-(strum)------------------------}
--222-2-2-2-----------12--12----11-11----9-}
-------------------2---x---x-----x--x----x-}
-------------------2--10--10-----9--9----7-}
-------------------0----------0------------}

*verse 3* (clean and uses same chords as the first verse)

--0---0---0---2--\-|
--0---1---0---3----| \
--0---0---0---2----|  \repeat 4 times
--2---2---0--------|  /
------3---2--------| /
-------------------|

*that little fill or solo or whataver you call it*

--------------------------------------------------------------|
--------------------------------------------------------------|
--------------------------------------------------------------|
--10-10-9---9-10-9-7--7h9-7-5-4-5-7-9-------------------------|
--------------------------------------------------------------|
--------------------------------------------------------------|


Well that's all i've figured out for now.  I'm still new to tabbing
music so give me a break.  There's still a whole lot more guitar to this
song and it's hard to figure it out cuz the song emphasizes on the guy's
voice not so much on the guitars.  Anyways it's a great song.

Thanks for lookin at my tab.

Questions? Comments? p**sed off? Wanna pay me for tabbing this? No? Ok.
            
Submit corrections

comments powered by Disqus
↑ Back to top | Ours Tabs for Sometimes. Lyrics for acoustic guitar and electric guitar. Tablatures and chords are parodies/interpretations of the original songs. You may use it for private study, scholarship, research or language learning purposes only