>
 >
Sometimes

Sometimes Bass Tabs

Ours - Sometimes chords, tabs, tablatures, lyrics

Guitar lessons | Add/correct | Request | Top 50 tabs Artists:  A B C D E F G H I J K L M N O P Q R S T U V W X Y Z 0-9

Sometimes Bass Tabs – Ours

CD, Sheet music, Poster

Do you like Sometimes? Share with your friends now
Bass TabsChordsTabsTabs v2Tabs v3Tabs v4Ukulele

Standard tuning

I know Race plays a lot of this on the E and A instead of breaking it up 
between
chords, and I need to see them in concert more to tab that right. I'm 
confident
that most of it is right, the only thing I am not confident is the 
"Sometimes,
sunshine" part, but what I wrote does work with the song. Let me know if you

Riff #1 (aka chorus)

g-----|----------------|-----------------|
d-----|----------------|-----------------|
a-5-0-|------------0-2-|--------5-5-0-2--|
E-----|0-0-3-0-2-2-----|-0-0-3-0---------|

Repeat 2 more times, then play this:

g-----------------|----------------|
d-----------------|----------------|
a-------------0-2-|--------5-5-----|
E-0-0-3-0-2-2-----|-0-0-3-0--------|

First verse no playing

Riff #2

g------------------|-------------|-----|
d-2-0-----0--------|-2-0-----0---|-----|
a-----3-3-------2--|-----3-3-----|-5-5-|
E-----------3-3----|-----------3-|-----|

I would still defend...            I would give up...

Chorus

During the second verse:

g|-----------------|-----------------|------------------|-------------|-----|
d|2-------0--------|-2-------0-------|-2-0-----0--------|-2-0-----0---|-----|
a|--2-3-3-------2--|---2-3-3-----2---|-----3-3-------2--|-----3-3-----|-----|
E|----------3-3----|-----------3-----|-----------3-3----|-----------3-|--0--|

Held up by...       They're unaware.. If I were to..      The fight..   
Again (hold for four)

Chorus

Then into the pre-bridge thing (instrumental)
Riff #3

g|-----------------|-------------------|-------------------|------------------|-
d|-----------------|-------------------|-------------------|------------------|-
a|-0-0-2-3---------|--------------0-2--|-0-0-2-3~~7-(hold)-|-------------0-2--|-
E|---------0-0-2-3-|-0-0-7-12-0-3------|-------------------|-0-0-0-0-0-3------|-

g|-----------------|-------------------|-------------------|-------------------------|-
d|-----------------|-------------------|-------------------|-------------------------|-
a|-0-0-2-3---------|--------------0-2--|-0-0-2-3~~7-(hold)-|-----------(rest)-5-5----|-
E|---------0-0-2-3-|-0-0-7-12-0-3------|-------------------|-0-0-0-0-0---------------|-

On screaming

g|---------|---------|---------|---------|-
d|---------|---------|---------|---------|-
a|---------|---------|---------|-5-5-0-2-|-
E|-0-0~~12-|-0-0~~12-|-0-0~~12-|---------|-

g|---------|---------|---------|-------|-
d|---------|---------|---------|-------|-
a|---------|---------|---------|---0-2-|-
E|-0-0~~12-|-0-0~~12-|-0-0~~12-|-3-----|-

Bridge

g|---------------|---------------|-------------------|----------------|----------------|-
d|-----0---------|-0-0-2-----0-2-|-0-----------------|----------------|----------------|-
a|-3-3-------0-2-|-------3-3-----|---------0-2-3-4-5-|----------------|----------------|-
E|-------3-3-----|---------------|---0-2-3-----------|----------------|----------------|-

Sometimes...      sunshine...      sunshiiiine

Repeat!

Then back into Riff #1 (below)

g-----|----------------|-----------------|
d-----|----------------|-----------------|
a-5-0-|------------0-2-|--------5-5-0-2--|
E-----|0-0-3-0-2-2-----|-0-0-3-0---------|

Repeat 4 more times, then play this:

g-----------------|----------------|------------------|
d-----------------|----------------|------------------|
a-------------0-2-|--------5-5-----|------------------|
E-0-0-3-0-2-2-----|-0-0-3-0--------|-0 (let it ring)--|





Comments


Popular Ours tabs & chords
As I Wander Bass Tabs
I Heard You Singing 2 Chords
If Flowers Turn Chords
The Mean Between Extremes Chords
Chapter 2 (Money) 1 Tabs
Dancing Alone Tabs
I'm A Monster Tabs
Meet Me In The Tower Tabs
I Heard You Singing Ukulele
Places Ukulele


Song lyrics



↑ Back to top | Tablatures and chords are parodies/interpretations of the original songs. You may use it for private study, scholarship, research or language learning purposes only
© 2014 AZChords.com Contact us | Privacy policy | DMCA | Add/correct tabs | Request tabs | Top 50 tabs