>
 >
Realize

Realize Guitar Tabs

Ours - Realize chords, tabs, tablatures, lyrics

Guitar lessons | Add/correct | Request | Top 50 tabs Artists:  A B C D E F G H I J K L M N O P Q R S T U V W X Y Z 0-9

Realize Guitar Tabs – Ours

CD, Sheet music, Poster

Do you like Realize? Share with your friends now
Tabs
Standard Tuning

*1 - Intro [0:00]

   Dm          F           Bb

E |5-5-5-5-----1-1-1-1-----6-6-6-6-----6-6-6-6------------------------|
B |6-6-6-6-----1-1-1-1-----6-6-6-6-----6-6-6-6------------------------|
G |7-7-7-7-----2-2-2-2-----7-7-7-7-----7-7-7-7------------------------|
D |7-7-7-7-----3-3-3-3-----8-8-8-8-----8-8-8-8------------------------|
A |5-5-5-5-----3-3-3-3-----8-8-8-8-----8-8-8-8------------------------|
E |------------1-1-1-1-----6-6-6-6-----6-6-6-6------------------------|

*2 - Verse 1 [0:12]

E |1---1-1---1-1-1-1---1-1---1-1-1-1---1-1---1-1-1---1-1---1-1-1-1----|
B |3---3-3---3-3-3-3---3-3---3-3-3-3---3-3---3-3-3---3-3---3-3-3-3----|
G |2---2-2---2-2-2-2---2-2---2-2-2-0---0-0---0-0-0---0-0---0-0-0-0----|
D |0---0-0---0-0-0-0---0-0---0-0-0-0---0-0---0-0-0---0-0---0-0-0-0----|
A |----------------3---3-3---3-3-3-2---2-2---2-2-2---2-2---2-2-2-2----|
E |-------------------------------------------------------------------|

*3 - Fill 1 [0:25]. Second half only at [1:30]
E |-------------------------------------------------------------------|
B |-------------------------------------------------------------------|
G |-------------------------------------------------------------------|
D |0-------------------------------0----------------------------------|
A |--------3-------2-----------------------3------/8------------------|
E |-------------------------------------------------------------------|

*4 - Prechorus [0:37]

   Bb                              F
E |6-6-6-6-6-6-6-6-6-6-6-6-6-6-6-6-1-1-1-1-1-1-1-1-1-1-1-1-1-1-1-1-|
B |6-6-6-6-6-6-6-6-6-6-6-6-6-6-6-6-1-1-1-1-1-1-1-1-1-1-1-1-1-1-1-1-|
G |7-7-7-7-7-7-7-7-7-7-7-7-7-7-7-7-2-2-2-2-2-2-2-2-2-2-2-2-2-2-2-2-|
D |8-8-8-8-8-8-8-8-8-8-8-8-8-8-8-8-3-3-3-3-3-3-3-3-3-3-3-3-3-3-3-3-|
A |8-8-8-8-8-8-8-8-8-8-8-8-8-8-8-8-3-3-3-3-3-3-3-3-3-3-3-3-3-3-3-3-|
E |6-6-6-6-6-6-6-6-6-6-6-6-6-6-6-6-1-1-1-1-1-1-1-1-1-1-1-1-1-1-1-1-|
   Rhythm

E |---------------------------------------------------|
B |---------------------------------------------------|
G |---------------------------------------------------|
D |12---12-12-10-10-10-10-----------------------------|
A |-----------------------13-13-13-13-12-12-12-12-13b-|
E |---------------------------------------------------|
   Lead

E |---------------------------------------------------|
B |---------------------------------------------------|
G |---------------------------------------------------|
D |---------------------------------------------------|
A |13-13-12-12-12-12-10-10-10-10-8-8-8-8--------------|
E |---------------------------------------------------|

   Lead continued...but you already knew that....

*5 - Riff 2 first occurs at [1:05]

E |---------------------------------------------------------------|
B |---------------------------------------------------------------|
G |2------------------------------2-------------------------------|
D |--------3-------5----------------------3-------0---------------|
A |---------------------------------------------------------------|
E |---------------------------------------------------------------|

*6 - Bridge {played over the intro/chorus riff)

E |--------|
B |--------|
G |2-2-2-2-| x4
D |2-2-2-0-|
A |--------|
E |--------|

E |-------------------------------------------------------|
B |-------------------------------------------------------|
G |-3-3-3-3--2---2-2--2-2---------------------------------|
D |-5-5-5-5--3---3-3--2-2---------------------------------|
A |-------------------------------------------------------|
E |-------------------------------------------------------|

?

*7 - Solo [2:14]  Props to MxTabs user crees for his corrections to my
original.

E |------10-10--------10-10--------10-------12-12-------12-12--------12|
B |--------------------------------------------------------------------|
G |12/14--------12/14--------12/14----12/14-------12/14--------12/14---|
D |--------------------------------------------------------------------|
A |--------------------------------------------------------------------|
E |--------------------------------------------------------------------|

E |------17-17-------17-17-18-17-18-18-18-18-17-17-17-17-15-15-15-15-13|
B |15/18-------15/18---------------------------------------------------|
G |--------------------------------------------------------------------|
D |--------------------------------------------------------------------|
A |--------------------------------------------------------------------|
E |--------------------------------------------------------------------|

*8 - Riff 3 [2:48].  Dave bangs out (literally, if you've ever seen them
do this song live) this riff over the last chorus.  I hit the A note
precisely 28 times, but it's not too hard to get the idea.

<...> <--indicates omitted repetitions

E |---------------------------------------------------------------|
B |---------------------------------------------------------------|
G |---------------------------------------------------------------|
D |---------------------------------------------------------------|
A |12-12-12-12-12-12-...-13-13-13-13------------------------------|
E |---------------------------------------------------------------|





Comments


Popular Ours tabs & chords
I Heard You Singing Chords
I Heard You Singing 2 Chords
If Flowers Turn Chords
Chapter 2 (Money) Tabs
God Only Wants You Tabs
Here Is The Light Tabs
I'm A Monster Tabs
Safe From The Worms Tabs
Sometimes 2 Tabs
Trust Is Dead Ukulele


Song lyrics



↑ Back to top | Tablatures and chords are parodies/interpretations of the original songs. You may use it for private study, scholarship, research or language learning purposes only
© 2014 AZChords.com Contact us | Privacy policy | DMCA | Add/correct tabs | Request tabs | Top 50 tabs