» » »

Murder Tabs (ver.1)

Artists:  A B C D E F G H I J K L M N O P Q R S T U V W X Y Z # 

Murder Tabs (ver.1)

Ours
Rating:
0/5 (0 votes)

Hard to play? Try these video lessons and learn fast.
                -------------------------------------------------------------------------------
-------------------------------------------------------------------------------

Tuning: Okay really basic song structure and somewhat fun to play especially if you sing along...
Main Riff
e|---------------------------------------------------------------------------|
B|---------------------------------------------------------------------------|
G|---------------------------------------------------------------------------|
D|--333-44--444444-----------------------------------------------------------|
A|--444-55--555555-----------------------------------------------------------|
E|--222-33--333333-----------------------------------------------------------|
timing is close, you can perfect it though
The only other riff, listen for timing and strum patterns, right notes though
e|--------------------------------------------------------------------------|
B|--------------------------------------------------------------------------|
G|9----5--7----9------------------------------------------------------------|
D|9----5--5----9------------------------------------------------------------|
A|7----3--5----7------------------------------------------------------------|
E|--------------------------------------------------------------------------|
            
Hard to play? Try these video lessons and learn fast. | Correct




comments powered by Disqus
↑ Back to top | Tablatures and chords are parodies/interpretations of the original songs. You may use it for private study, scholarship, research or language learning purposes only