>
 >
Dancing Alone

Dancing Alone Guitar Tabs

Ours - Dancing Alone chords, tabs, tablatures, lyrics

Guitar lessons | Add/correct | Request | Top 50 tabs Artists:  A B C D E F G H I J K L M N O P Q R S T U V W X Y Z 0-9

Dancing Alone Guitar Tabs – Ours

CD, Sheet music, Poster

Do you like Dancing Alone? Share with your friends now
Tabs
OURS - DANCING ALONE

chords used:

   Am: X02210 
Cmaj7: X32000
Fmaj7: X33210
    C: 332010

Intro:
|--------------------|--------------------|
|-1p0-1-----1p0-1----|-1p0-1-----1p0-1----|
|--------0---------0-|--------0---------0-|
|--------------------|--------------------|
|-3---------3--------|-3---------3--------|
|--------------------|--------------------|

|-0---------|-0-------| 
|----------------0----|
|------3--3-|---3-1-3-| 
|-----0-1------3------|
|-----------|---------|
|------------2--------|

|-3----3--3-|-3-------|
|---2------3----------|
|-----------|---------| 
|-3-------------------|
|-----------|---------| 
|---------------------|

play 4x's

|-0-0-0-0-|
|-1-0-1-0-|
|-2-2-2-2-|
|-2-2-2-2-| play a few times
|-0-0-0-0-|
|---------|

Vs.
Am Fmaj7
Waking from his eyes
Am Fmaj7 Am Fmaj7 Am Fmaj7
You've hurt you
Am Fmaj7
He is just a child
Am Fmaj7 Am Fmaj7 Am Fmaj7
We'll have to try

CH.
C Fmaj7 C Fmaj7
I was just kidding all the time
C Fmaj7
How can I have really died
C Fmaj7 C Fmaj7
And why am I dancing
C Fmaj7
Dancing alone

Vs.
We'll go out tonight
Still searching
For ways to get high
And I've got mine
I can't feel my hands
I can't feel my hands
CHORUS
replace this for the last line of the chorus:
C Fmaj7 C Fmaj7
Time moves slowly through these walls

SOLO
Br.
Fmaj7 Cmaj7
Still took years to find
Fmaj7 Cmaj7
Lost in a world of our own we'll find
Fmaj7
With hope in our eyes
Cmaj7 Fmaj7
That we find another world

PLAY VERSE CHORDS WITH IMPROV VOCALS

SOLO:
|-0--0-0--0--0---0------------|
|-1--1-1--0--1---1/6-6-6-6----|
|-2--2-2--2--2---2/7-7-7-7----| this riff plays
|-2--2-2--2--2---2/7-7-7-7----| throughout the whole
|-0--0-0--0--0---0-0-0-0-0----| solo
|-----------------------------|

|------------|------------|-------------------------|
|------------|------------|-------------------------|
|------------|------------|-7/9-9--9/10-10-10/12-12-|
|-5---3--3h5-|-2----------|-------------------------|
|------------|-------5--5-|-5/7-7--7/-8-8---8/10-10-|
|------------|------------|-------------------------|

|------------------------------|----|------|
|------------------------------|----|-/12--|
|-12/14-14--14/16-16--16/17-17-|-17-|------|
|------------------------------|----|------|
|-10/12-12--12/14-14--14/15-15-|-15-|------|
|------------------------------|----|------|

there's some random lead parts during the bridge.
if you improv on the upper half of the neck, you'll survive.
there's also a part in the main rhythm track, the Am to Fmaj7, that goes like this:

|-0-0-0-0--0-0-0-0--|
|-1-0-1-0--1-0-1-0--|
|-2-2-2-0--2-2-2-0--|
|-2-2-2-0--3-3-3-0--|
|-0-0-0-0--3-3-3-0--|
|-------------------|





Comments


Popular Ours tabs & chords
Sometimes Bass Tabs
Bohemian Rhapsody Chords
Red Coloured Stars Chords
Sometimes Tabs
Sometimes 2 Tabs
Leaves Ukulele
Meet Me In The Tower Ukulele
Places Ukulele
Red Coloured Stars Ukulele
Trust Is Dead Ukulele


Song lyrics



↑ Back to top | Tablatures and chords are parodies/interpretations of the original songs. You may use it for private study, scholarship, research or language learning purposes only
© 2014 AZChords.com Contact us | Privacy policy | DMCA | Add/correct tabs | Request tabs | Top 50 tabs