>
 >
Chapter 2 (Money) 1

Chapter 2 (Money) 1 Guitar Tabs

Ours - Chapter 2 (Money) 1 chords, tabs, tablatures, lyrics

Guitar lessons | Add/correct | Request | Top 50 tabs Artists:  A B C D E F G H I J K L M N O P Q R S T U V W X Y Z 0-9

Chapter 2 (Money) 1 Guitar Tabs – Ours

CD, Sheet music, Poster

Do you like Chapter 2 (Money) 1? Share with your friends now
TabsTabs v2
Band:      Ours


Standard Tuning: E A D G B e


Legend:
	h - hammer on
	p - pull off
	b - bend string up
	r - release bend
	/ - slide up
	\ - slide down
	~ - vibrato
	t - tap (with strumming hand)
	x - muted, struck string
	* - palm mute


The guitar in this song is so sweet... an all around great song.

Jim Gnecco is the best. Listen to the song to get a grasp on the

timing. For most of the song, I didn't bother to put down

strumming patterns, you can figure it out.

Intro/Outro:

e---0--------0--------0--------0-----------|
B---3--------2--------1--------0-----------|
G---0--------0--------0--------0-----------|
D---2--------2--------2--------2-----------|
A---2--------2--------2--------2-----------|
E---0--------0--------0--------0-----------|


Verse (part 1):

e-----0-0-0-0---0-0-0-0---0-0-0-0---0-0-0-0-------|
B-----0-0-0-0---0-0-0-0---0-0-0-0---0-0-0-0-------|
G-----0-0-0-0---0-0-0-0---0-0-0-0---0-0-0-0-------|
D---2---------2---------2---------2---------------|
A---3---------0---------2---------x---------------|
E---------------------------------3---------------|


Verse (part 2):

e-----0-0-0-0---0-0-0-0---0-0-0-0---0-0-0-0-------|
B-----0-0-0-0---0-0-0-0---0-0-0-0---0-0-0-0-------|
G-----0-0-0-0---0-0-0-0---0-0-0-0---0-0-0-0-------|
D---2---------2---------2---------2---------------|
A---0---------x---------x---------x---------------|
E-------------2---------3---------0---------------|



Fill 1:

e----------------------------|
B----------------------------|
G----------------------------|
D----------------------------|
A---2-------2--2--2--/9------|
E---0-------0--2--3--/7------|


Chorus:

e|---0----2----3----|----0----2----0-----|
B|---1----3----3----|----1----1----0-----|
G|---2----2----0----|----2----2----0-----|
D|---2----0----0----|----2----0----2-----|
A|---0---------2----|----0---------2-----|
E|-------------3----|--------------0-----|


        e|---0----2----7-/-8--/-10-\-8---|----0----2----0-----|
        B|---1----3----8-/-10-/-12-\-10--|----1----1----0-----|
        G|---2----2----0---0----0----0---|----2----2----0-----|
        D|---2----0----0---0----0----0---|----2----0----2-----|
        A|---0---------------------------|----0---------2-----|
        E|-------------------------------|--------------0-----|



Bridge 1:

e|---0----2----3----2---|----0----2----3----3-----|
B|---1----3----3----3---|----1----3----3----3-----|
G|---2----2----0----4---|----2----2----0----0-----|
D|---2----0----0----4---|----2----0----0----0-----|
A|---0---------2----2---|----0---------2----2-----|
E|-------------3--------|--------------3----3-----|


        e|---0----2----3----2---|----0----2----0----0-----|
        B|---1----3----3----3---|----1----3----0----0-----|
        G|---2----2----0----4---|----2----2----0----0-----|
        D|---2----0----0----4---|----2----0----2----2-----|
        A|---0---------2----2---|----0---------2----2-----|
        E|-------------3--------|--------------0----0-----|



Bridge 2:

e---0---0---0----0----0----0----0---0------|
B---0---0---0----0----0----0----0---0------|
G---0---0---0----0----0----0----0---0------|
D---5-/-7-/-10-/-12-\-10-\-9--\-7---7------|
A---7-/-9-/-12-/-14-\-12-\-10-\-9---9------|
E---0---0---0----0----0----0----0---0------|


Now put all the parts together, in order:


Intro/Outro             x6

  Verse (Parts 1 & 2)   x2

    Fill 1              x1

  Verse (Part 1 only)   x1

    Fill 1              x1

  Verse (Parts 1 & 2)   x1

Chorus                  x1

  Verse (Parts 1 & 2)   x2

    Fill 1              x1

  Verse (Parts 1 & 2)   x2

Chorus                  x1

  Bridge 1              x1

  Bridge 2              x6

Chorus                  x1

Intro/Outro             (Not sure how many times on outro)





Comments


Popular Ours tabs & chords
As I Wander Bass Tabs
Sometimes Bass Tabs
Bleed Chords
Drowning Chords
I Heard You Singing 2 Chords
Dancing Alone Tabs
I'm A Monster Tabs
Realize Tabs
Bohemian Rhapsody Ukulele
The Mean Between Extremes Ukulele


Song lyrics



↑ Back to top | Tablatures and chords are parodies/interpretations of the original songs. You may use it for private study, scholarship, research or language learning purposes only
© 2014 AZChords.com Contact us | Privacy policy | DMCA | Add/correct tabs | Request tabs | Top 50 tabs