» » »

Our Lady Peace, Waited Tabs (ver.1)

Artists:  A B C D E F G H I J K L M N O P Q R S T U V W X Y Z # 

Waited Tabs (ver.1)

Our Lady Peace Tabs
Rating:
0/5 (0 votes)
Waited lessons Tabs too difficult? Try these video lessons and learn fast
                PROPS GO TO: jason (olpkid)

Transcripted by: Jason 

\=slide up 
/ = slide down 
~ = wiggle and bend 
[x] = harmonic 

tunning: Eb Ab Db Gb Bb Eb 

Intro 
Eb-|---------------------------------------------------| 
Bb-|-15-17h19-15-------17---15-17h19-15----------------| 
Gb-|-------------14-15------------------14-15-18/0-----| 
Db-|--0----------------------0-------------------------| 
Ab-|---------------------------------------------------| 
Eb-|---------------------------------------------------| 
verse pt.1 
Eb-|-----0-------0--------3------3---------------------| 
Bb-|---3---3---3---3----3------3------0h3-2------------| 
Gb-|----------------------------------------4p2p0------| 
Db-|-0-------------------------------------------------| 
Ab-|---------3-----------------------------------------| 
Eb-|-----------------3------2------0-------------------| 
verse pt.2 
Eb-|-----0-------0--------3------3---------------------| 
Bb-|---3---3---3---3----3------3------------3\7~-------| 
Gb-|----------------------------------2h4p2------------| 
Db-|-0-------------------------------------------------| 
Ab-|---------3-----------------------------------------| 
Eb-|-----------------3------2------0-------------------| 
pre chorus                                          strum 222 
Eb-|-----0-------0-------0------0-|--0-----0---0-------0---| 
Bb-|---3---3---3---3---3---3--3---|--3-0-3---2---3--3--2---| 
Gb-|------------------------------|--0-0-4---2---0--4--2---| 
Db-|-0---------------0------------|--------------------2---| 
Ab-|---------3--------------3-----|------------------------| 
Eb-|------------------------------|------------------------| 
chorus  3 times      forth time 
Eb-|----3--2--0--|--3--2--0---| 
Bb-|----3--3--2--|--3--3--2---| 
Gb-|----0--2--2--|--0--2--2---| 
Db-|-2--0--0--2--|--0--0--2---| 
Ab-|-2--2-----0--|--2-----0---| 
Eb-|-0--3--------|--3---------| 
intro again 
Eb-|---------------------------------------------------| 
Bb-|-15-17h19-15-------17---15-17h19-15----------------| 
Gb-|-------------14-15------------------14-15-18/0-----| 
Db-|--0----------------------0-------------------------| 
Ab-|---------------------------------------------------| 
Eb-|---------------------------------------------------| 
verse pt 1 
Eb-|-----0-------0--------3------3--------------| 
Bb-|---3---3---3---3----3------3----------3-2---| 
Gb-|----------------------------------2h4-------| 
Db-|-0------------------------------------------| 
Ab-|---------3----------------------------------| 
Eb-|-----------------3------2------0------------| 
verse pt 2 
Eb-|-----0-------0--------3------3----------------| 
Bb-|---3---3---3---3----3------3------2--3\5-3p2--| 
Gb-|-----------------------------------2----------| 
Db-|-0--------------------------------------------| 
Ab-|---------3------------------------------------| 
Eb-|-----------------3------2------0--------------| 
pre chorus                  2 guitar parts here 
         THIS                   AND      THIS 
Eb-|-----0-------0-------0------0-|------------------------| 
Bb-|---3---3---3---3---3---3--3---|------------------------| 
Gb-|------------------------------|------------------------| 
Db-|-0---------------0------------|--9-10\12\14\17--9-10---| 
Ab-|---------3--------------3-----|--9-10\12\14\17--9-10---| 
Eb-|------------------------------|--7--8\10\12\15--7--8---| 

pre chorus cont. 
Eb-|--0-----0---0-------0---| 
Bb-|--3-0-3---2---3--3--2---| 
Gb-|--0-0-4---2---0--4--2---| 
Db-|--------------------2---| 
Ab-|------------------------| 
Eb-|------------------------| 
chorus  3 times     forth time 
Eb-|----3--2--0--|--3--2--0-3-2--| 
Bb-|----3--3--2--|--3--3--2-3-3--| 
Gb-|----0--2--2--|--0--2--2-0-2--| only do up to D chord then go into 
Db-|-2--0--0--2--|--0--0--2-0-0--|solo below...listen to timing... 
Ab-|-2--2-----0--|--2-----0-2----|when you hear high pitch (which is 
Eb-|-0--3--------|--3-------3----|tabbed below stop D and do solo 

solo 
Eb-|-22~--22-----10-10-10-10-10-10/0---------------------------------- 
Bb-|-----------------7-----7-----7/0--15~-17~-19~-20~----15-15--15\17- 
Gb-|----20--20-------0-----0-----0/0------------------12------12------ 
Db-|-----------------0-----0-----0/0---------------------------------- 
Ab-|------------------------------------------------------------------ 
Eb-|------------------------------------------------------------------ 

solo cont. 
Eb-|--------------------------------| 
Bb-|-19-20-19-17--15~~~~~~-\19------| 
Gb-|---------------------------12---| 
Db-|--------------------------------| 
Ab-|--------------------------------| 
Eb-|--------------------------------| 
before chorus 
Eb-|--3--2--0-------3-2-0---| 
Bb-|--3--3--2-[7]---3-3-2---| 
Gb-|--0--2--2-------0-2-2---|   
Db-|--0--0--2-----2-0-0-2---| 
Ab-|--2-----0-----2-2---0---| 
Eb-|--3-----------0-3-------| 

chorus  3 times      forth time x4 
Eb-|----3--2--0--|--3--2--0---| 
Bb-|----3--3--2--|--3--3--2---| 
Gb-|----0--2--2--|--0--2--2---| 
Db-|-2--0--0--2--|--0--0--2---| 
Ab-|-2--2-----0--|--2-----0---| 
Eb-|-0--3--------|--3---------| 

Eb-|-----------------------------------------------| 
Bb-|-15-17h19-15-------17---15-17h19-15------------| 
Gb-|-------------14-15------------------14-15------| 
Db-|--0----------------------0---------------------| 
Ab-|-----------------------------------------------| 
Eb-|-----------------------------------------------|
            
Submit corrections

comments powered by Disqus
↑ Back to top | Our Lady Peace Tabs for Waited. Lyrics for acoustic guitar and electric guitar. Tablatures and chords are parodies/interpretations of the original songs. You may use it for private study, scholarship, research or language learning purposes only