» » »

Somewhere Out There Tabs (ver.2)

Artists:  A B C D E F G H I J K L M N O P Q R S T U V W X Y Z # 

Somewhere Out There Tabs (ver.2)

Our Lady Peace
Rating:
0/5 (0 votes)

Hard to play? Try these video lessons and learn fast.
                somewhere out there

tuning: standard dropped 1/2 step

Intro

Guitar 1  (Light Distortion)
E---------------
B---------------
G---7--6--9--7--
D---------------
A---5--4--7--5--
E---------------

E---------------
B---------------
G--7\4--4/7-----
D---------------
A--5\2--2/5-----
E---------------

Guitar 2  (Clean)
E|--------------------------
B|--------------------------
G|-7------------------------
D|-7---7---5---2---5--------
A|-5---7---5---2---5--------
E|-----5---3---0---3--------



Verse:


E--2---3---0---3
B--3---3---0---3
G--2---0---0---0     x 2
D--0---0---2---0
A------2---2---2
E------3---0---3

E--0---3
B--0---3
G--0---0
D--2---0
A--2---2
E--0---3


Verse 2


Chorus

Guitar 1  (Heavy Distortion)
E--------------
B--------------
G--7--6--9--7--   
D--------------
A--5--4--7--5--
E--------------

E---------------
B---------------
G--7\4--4/7-----
D---------------
A--5\2--2/5-----
E---------------

Guitar 2  (Heavy Distortion)
E-------------------------
B-------------------------
G-7-----------------------
D-7---7---5---2--5--------
A-5---7---5---2--5--------
E-----5---3---0--3--------


Verse 3

Chorus

Interlude 

Guitar 1
E------------14----
B--15~---12--------
G------------------  
D------------------  
A------------------
E------------------

Guitar 2

E-------
B-------
G-------
D--2---5
A--2---5
E--0---3
            
Hard to play? Try these video lessons and learn fast. | Correct




comments powered by Disqus
↑ Back to top | Tablatures and chords are parodies/interpretations of the original songs. You may use it for private study, scholarship, research or language learning purposes only