>
 >
Our Time Is Fading

Our Time Is Fading Guitar Tabs

Our Lady Peace - Our Time Is Fading chords, tabs, tablatures, lyrics

Guitar lessons | Add/correct | Request | Top 50 tabs Artists:  A B C D E F G H I J K L M N O P Q R S T U V W X Y Z 0-9

Our Time Is Fading Guitar Tabs – Our Lady Peace

CD, Sheet music, Poster

Do you like Our Time Is Fading? Share with your friends now
Tabs
Tuning: half step down, dropped D

It sounds like Mazur uses a lot of effects in this one; I can pick out
a tremolo pedal, a delay/echo pedal, a wah-wah, and possibly some overdrive 

^=bend
r=release
/=slide
X=mute (not "x", thats "times")
p=pull off
h=hammer on

Intro (x8)
|-----------------|
|-----------------|
|-----------------|
|-----------------|
|-2-3^4-----------|
|-------2-5-2-4-5-|

Verse: ”… I’m growing them back today” (00:21)
|-------------|
|-------------|
|-10/22-(22)--|>>>>>>>>>>>>>-|
|--m------------------------o---11-11-11-11-11-11-11-11-|
|-9m(8)r(9)-9-9--9-9-9X9X-9/11--11-11-11-11-11-11-11-11-|
|-9y(8)r(9)-9-9--9-9-9X9X-9/11--11-11-11-11-11-11-11-11-|

Pre-chorus (00:29)
|----------------------------------------|
|----------------------------------------|
|----------------------------------------|
|------4-4-----------4/5-4/5-----4-4--4-4|
|2-3^4-4-4-x4--2-3^4-4/5-4/5-x2--4-4--4-4|
|------4-4-----------4/5-4/5-----4-4--4-4|

Chorus x2 (00:40)(im not sure about this)
|----------------------------------|
|----------------------------------|
|-7----5----4----------------------|
|--x17--x17--x16-7/6/5-5/4/3-3-2-2-|
|-5----3----2----7/6/5-5/4/3-3-2-2-|
|----------------7/6/5-5/4/3-3-2-2-|

(1:02) play intro 4x



Verse 2 x2(1:08)
|------------------------|
|------------------------|
|------------------------|
|10----12----14/15\14/15-|
|10-x6-12-x5-14/15\14/15-|
|10----12----14/15\14/15-|

(1:18) pre-chorus

(1:30)Chorus

(1:52) right…
|---|
|---|
|---|
|-0-|
|-0-|
|-0-|hold for 8 beats

bridge(1:58)x2(second time, don’t play the 10-8-7-12 etc. part, instead, just
play the chord before [G5])
|------------------------------------------|
|------------------------------------------|
|------------------------------------------|
|3-3-----------------5-5-------------------|
|3-3-8-7-5-----------5-5-10-8-7------------|
|3-3------10-9-8-7-6-5-5-------12-10-8-7-5-|


Solo (2:08)
|------------------------------------------------------------------|
|------------------------------------------------------------------|
|-17^19-16-14-14h16p14--15^17-14-16-14h16p14----17^19r17^19^20r17--|
|---------------------16---------------------16--------------------|
|------------------------------------------------------------------|
|------------------------------------------------------------------|

|------------------------------------------------------------------|
|------------------------------------------------------------------|
|-14-17-14-----------------------------------------------------17--|
|----------17-15-14---------17-15-------17-17-15---15--15-17-19--19|
|--------------------(17)-17------17-17----------17--17------------|
|------------------------------------------------------------------|
				 |^^^^^^^^^^^^^^^^^^^^^^^^^^^^^^^^^^^|
				 its probably better if you just improvise 
with these notes.
 				|--------------------------------------------|
				|------------20^22r20~--(vocals)—15~------}--|
				|-17-19-17-19-----------------------16~13~}x2|
				|--------------------------------------------|
				|--------------------------------------------|
				|--------------------------------------------|
chorus x2 then pay open 6 5 and 4 (D5)





Comments


Popular Our Lady Peace tabs & chords
Innocent 2 Bass Tabs
Stealing Babies Chords
Superman's Dead Chords
Supermans Dead 2 Chords
Supermans Dead Drum Tabs
Automatic Flowers 1 Tabs
Car Crash Tabs
Happiness & The Fish Tabs
In Repair 1 Tabs
Kiss On The Mouth Tabs


Song lyrics



↑ Back to top | Tablatures and chords are parodies/interpretations of the original songs. You may use it for private study, scholarship, research or language learning purposes only
© 2014 AZChords.com Contact us | Privacy policy | DMCA | Add/correct tabs | Request tabs | Top 50 tabs