» » »

Our Lady Peace, Car Crash Bass tabs (ver.1)

Artists:  A B C D E F G H I J K L M N O P Q R S T U V W X Y Z # 

Car Crash Bass tabs (ver.1)

Our Lady Peace Tabs
Rating:
4/5 (5 votes)
Car Crash lessons Tabs too difficult? Try these video lessons and learn fast
                
Tune E string down to D
4(\)6 = slide up to 6 but still strike the string to produce sound

Verse and Intro
G|-------------------------------|
D|-------------------------------|
A|-------------------------------|
D|-00000-8/999-888-222222-111111-|

"But oooh-ohhh..."
G|-------------------|---------------|
D|-------------------|---------------|
A|-------------------|---------------|
D|-444444(/)666666-6-|-444444444-666-|

"It's more than I can bear..."
G|---------------------------------------------------|
D|---------------------------------------------------|
A|---------------------------------------------------|
D|-0-000-0-0-0--6-666-6-6-6--7-777-7-7-7\4-444-4-4-4-|

Interlude (loud part at around 1:40 into the song)
G|-------------------------|
D|-------------------------|
A|-------2-222-------------|
D|-1-111-------6-666-6-666-|

2nd Interlude (after 1st interlude is played for a second time in the song)
G|------------------------|
D|------------------------|
A|-7-444-2-------------77-|
D|---------222-2/444-4----|
            

comments powered by Disqus
↑ Back to top | Our Lady Peace Bass for Car Crash. Lyrics for acoustic guitar and electric guitar. Tablatures and chords are parodies/interpretations of the original songs. You may use it for private study, scholarship, research or language learning purposes only