» » »

Return Of The Repressed Tabs (ver.1)

Artists:  A B C D E F G H I J K L M N O P Q R S T U V W X Y Z # 

Return Of The Repressed Tabs (ver.1)

Other
Rating:
0/5 (0 votes)

Tabs too difficult? Try these video lessons and learn fast.
                This is "Return of the repressed"

Intro:

e------------------|
b------------------|
G-------88888------|
D-3333--88888-3----|
A-3333--66666-3----|
E-1111--------1----|

Pre Verse

e-------------------------|
b-------------------------|
G------4444---------------|
D-3333-4444-3333--66--88--| 2x
A-3333-2222-3333--66--88--|
E-1111------1111--44--66--|

Verse  2x

e-------------------------------------------------------------------------------------------------------------|
b-------------------------------------------------------------------------------------------------------------|
G------4444------------------4444-----------------------------------------------------------------------------|
D-3333-4444-3333-66-88--3333-4444-3333-66-8888--3*-6*-8*-6*-3*--3*-6*-8*-6*-3*--3*-6*-8*-6*-3*--3*-6*-8*-6*-3*|
A-3333-2222-3333-66-88--3333-2222-3333-66-8888--3*-6*-8*-6*-3*--3*-6*-8*-6*-3*--3*-6*-8*-6*-3*--3*-6*-8*-6*-3*|
E-1111------1111-44-66--1111------1111-44-6666--1*-4*-6*-4*-1*--1*-4*-6*-4*-1*--1*-4*-6*-4*-1*--1*-4*-6*-4*-1*|

Chorus
e------------------------------------|
b------------------------------------|
G-8888------8888------8888-----------|
D-8888-8888-8888-8888-8888-8888-3333-| 2x
A-6666-8888-6666-8888-6666-8888-3333-|
E------6666------6666------6666-1111-|

Pre Verse 2x

Verse 2x

Chorus 4x


So...dunno if it's all right but I hope you enjoy!
            
Tabs too difficult? Try these video lessons and learn fast.


comments powered by Disqus
↑ Back to top | Tablatures and chords are parodies/interpretations of the original songs. You may use it for private study, scholarship, research or language learning purposes only